Oops, an error
Loading. Please wait.

Ojos De Angel Bass Tab

version 1
version 1

Whole song

Interactive

1,078 views 1 this week
no commentswrite comment
1 2 3 4 5
please rate
add to favorites
launch autoscroll
font size
0
reset
guitar tuner
Tab Pro tools
  • play this tab
  • loop segment
  • change instrument
  • show fretboard
  • metronome
×
Best way to learn
"Ojos De Angel"
Autoscroll
slow
fast
+/-
esc
set tempo
stop
Contributor
ENTRA JUNTO CON LA BATERIA CUANDO CANTA:
Y TE ME VAS AHORITA.......

G---------------------------------------------|
D---------------------------------------------|
A---------------------------------------------|
E-555555555555--------------------------------|

Coro: Y cuando al fin comprendas...

G---------------------------------------------|
D---------------------2--4--5--7--------------|
A-5-55-5--5-5-55-5-55-------------------------|
E---------------------------------------------|

Vas a extrañar mis besos...
G---------------------------------------------|
D-----------------------6--77--9--7-----------|
A-7-77-7--7-7--77-7--77-----------------------|
E---------------------------------------------|

Vas a sentir que lloras...
G----------------------------------------------|
D-------------------------7-77-7-77--4-44-4-44-|
A-5--55-5--5--7--77-7--7-7---------------------|
E----------------------------------------------|

Y has de querer mirarte...
G---------------------------------------------|
D-----------2--22-2--22-----------------------|
A-2-22-2-22-----------------------------------|
E---------------------------------------------|

Que quisiste tanto...
G-------------------------------------------------|
D-----4-4-------2--2------------------------------|
A----------2-2--------0-------0-------------------|
E-5-5---------------------------------------------|

Después de esta parte, cuando se queda en silencio yo lo toco
con armónicos, pero pueden tocarlo como quieran.

G------(12)-----------------------------------|
D----------(12)-------------------------------|
A--0------------(12)--------------------------|
E---------------------------------------------|

En seguida va el solo:

G---------------------------------------------------|
D------------------------------9---------9----------|
A--------7--5-------7--5--77-7---7--77-7----7-------|
E--55--5-------55--5--------------------------------|

G--------------------------------------- ----------|
D--------4--2-------4--2---------------- ----------|
A--22--2-------22--2-----------7--5----- (5)-------|
E-------------------------55--5-------5- ----------|


Verso2: Cuando se quiera a fuerza...
G---------------------------------------------|
D---------------------------------------------|
A--------7--5------7--5------7--5-------7--5--|
E--55--5------55--5-----55--5------55--5------|

G--------------------|
D--------9-----------|  X6 VECES
A--77--7----7--------|
E--------------------|

Después sigue el coro

Final

Se me acabo la fuerza...

Y te solté la rienda

G---------------------------------------------|
D---------------------------------------------|
A--------7--5-------7--5-------7--5-----------|
E--55--5-------55--5------55--5---------------|

Termina en  A

G-------------|
D-------------|
A-------------|
E----5--------|
comments
We did not receive enough feedback on this tab! Please rate:
print report bad tab
1 2 3 4 5
I want to post or [tab]
guest
You may want to rate the tab now too:
select rating
Please do not post tabs as comments. Select "correction" instead!