Oops, an error
Loading. Please wait.

Ojos De Angel Tab

version 1
version 1

Interactive

1,114 views 3 this week
no commentswrite comment
1 2 3 4 5
please rate
add to favorites
launch autoscroll
font size
0
reset
how to read this tab
guitar tuner
Tab Pro tools
  • play this tab
  • loop segment
  • change instrument
  • show fretboard
  • metronome
×
Best way to learn
"Ojos De Angel"
Autoscroll
slow
fast
+/-
esc
set tempo
stop
Contributor
despues de la bateria...
  Bm  -  D  -  G  -  A  

e----10-------12_10-12_10-----10---(10)--15-15-
B-------12-----------------------12------------
G-11-------11--------------11------------------
D----------------------------------------------
A----------------------------------------------
E----------------------------------------------

e----10-------12_10-12_10-----10---(10)--15-15-
B-------12-----------------------12------------
G-11-------11--------------11------------------
D----------------------------------------------
A----------------------------------------------
E----------------------------------------------
he visto que tiene los ojos de un angel...

  Bm  -  D  -  G  -  A  

e--2-----2-----3-----5-------
B--3-----3-----3-----5-------
G--4-----2-----4-----6-------
D--4-----0-----5-----7-------
A--2-----------5-----7-------
E--------------3-----5-------

he entrado a un lugar prohibido y no puedo salir..

e--7-X-X-X--7-X-X-X--7-X-X-X--7-X-X-X---
B--7-X-X-X--7-X-X-X--7-X-X-X--7-X-X-X---
G--7-X-X-X--7-X-X-X--7-X-X-X--7-X-X-X---
D--9-X-X-X--9-X-X-X--9-X-X-X--9-X-X-X---
A--9-X-X-X--9-X-X-X--9-X-X-X--9-X-X-X---
E--7-X-X-X--7-X-X-X--7-X-X-X--7-X-X-X---

si no es junto a tí

e-------------------------------------0s2s0---
B--3--------3-3--3--------3-----3-5-5-------3-
G----4-4--4--------4--2s4---4-4---------------
D---------------------------------------------
A---------------------------------------------
E---------------------------------------------

e---------------------------------------
B--3--------3-3--3--------3-------------
G----4-4--4--------4--2s4---4-4-4-2~~---
D---------------------------------------
A---------------------------------------
E---------------------------------------

y aunque tengas .. tu dueño..

e---------0----------------------
B-----3------3-------3---2-3-2---
G---4---4------4---4---4---------
D--------------------------------
A--------------------------------
E--------------------------------

e---------0----------------------
B-----3------3-------3---2-3-2---
G---4---4------4---4---4---------
D--------------------------------
A--------------------------------
E--------------------------------

el tiempo ha dañado las mentes dormidas, despiertan . ...


  aunque tengas tu dueño   yo seguiré en pié....
e--------2-------2--0--2-------2----------------------
B--------3------------------3----3-2-3--2s3-2--3-2-0--
G--------4--------------------------------------------
D-----------------------------------------------------
A-----------------------------------------------------
E-----------------------------------------------------

 aunque duerman tus sueños ....
e--------2-------2--0--2-------2---------------
B--------3------------------3----3-2-3--2s3-2--
G--------4-------------------------------------
D----------------------------------------------
A----------------------------------------------
E----------------------------------------------

e--2-X-X-2-2--5-X-X-5--3-X-X-3-3--5-X-X-5---
B--3-X-X-3-3--7-X-X-7--3-X-X-3-3--5-X-X-5---
G--4-X-X-4-4--7-X-X-7--4-X-X-4-4--6-X-X-6---
D--4-X-X-4-4--7-X-X-7--5-X-X-5-5--7-X-X-7---
A--2-X-X-2-2--5-X-X-5--5-X-X-5-5--7-X-X-7---
E----------------------3-X-X-3-3--5-X-X-5---


e--12-10--10-10-10-10--12-10--10-10-10-10--
B--XX-XX--XX-XX-XX-XX--XX-XX--XX-XX-XX-XX--
G------------------------------------------
D------------------------------------------
A------------------------------------------
E------------------------------------------

e--12~--10~--9~--10~---12~--10~--9~--10~------------------
B-----------------------------------------12~--12.12-12~--
G-----------------------------------------11~--------11~--
D---------------------------------------------------------
A---------------------------------------------------------
E---------------------------------------------------------

e-(10)------10---X-X-------------...
B--12~~~~~~-12~~-X-X-12~~~~~~~---...
G--11~~~~~~-11~~-X-X-11~~~~~~~---... (wah-wah) ...
D--XX-------XX-X-XX-XXX----X-X---...
A--------------------------------...
E--------------------------------...


e-------------------------
B--12-12--12---12-12--12--
G--11-11--11---11-11--11--
D-------------------------
A-------------------------
E-------------------------

aunque tengas .. aunque tengas...

e--2-----2-----3-----5-------
B--3-----3-----3-----5-------
G--4-----2-----4-----6-------
D--4-----0-----5-----7-------
A--2-----------5-----7-------
E--------------3-----5-------


e----10-------12_10-12_10-----10----X--15-15-
B-------12-----------------------12-----------
G-11-------11--------------11-----------------
D---------------------------------------------
A---------------------------------------------
E---------------------------------------------

e----10-------12_10-12_10-----10------15---15--2--
B-------12-----------------------12------------3--
G-11-------11--------------11------------------4--
D----------------------------------------------4--
A----------------------------------------------2--
E-------------------------------------------------
comments
We did not receive enough feedback on this tab! Please rate:
print report bad tab
1 2 3 4 5
I want to post or [tab]
guest
You may want to rate the tab now too:
select rating
Please do not post tabs as comments. Select "correction" instead!