Oops, an error
Loading. Please wait.

Ojos De Angel Tab

version 2
version 2

Interactive

1,836 views 3 this week
no commentswrite comment
1 2 3 4 5
please rate
add to favorites
launch autoscroll
font size
0
reset
how to read this tab
guitar tuner
Tab Pro tools
  • play this tab
  • loop segment
  • change instrument
  • show fretboard
  • metronome
×
Best way to learn
"Ojos De Angel"
Autoscroll
slow
fast
+/-
esc
set tempo
stop
Contributor
   ACORDES USADOS EN ESTA ROLAZA
                    ===============================

   Bm           D          G            A
\x=====/    \======/    \======/    \x=====/
 ||||||      ||||||      ||||||      ||||||
 |ooooo      |||o|o      |o||||      ||ooo|
 ||||o|      ||||o|      o||||o      ||||||
 ||oo||      ||||||      ||||||      ||||||

 EXPLICACION DE ALA TABLATURA
                           h=   hammer on
                           p=   pull-off
                           /=   slide up
                           \=   slide down
                           br=  bend
                           ~=  vibrato
                           x=  palm-mute note

INTRO:

   Bm         D            G           A
e|-14-10---12h10--12h10---14-10----15-----15-|
b|-------12-----12---------------12-----12---|
g|-------------------------------------------|
D|-------------------------------------------|
A|-------------------------------------------|
E|-------------------------------------------|

   Bm           D           G           A
e|-14-10---12h10--12h10---14-10----15-----15-|
b|-------12-----12---------------12-----12---|
g|-------------------------------------------|
D|-------------------------------------------|
A|-------------------------------------------|
E|-------------------------------------------|
                                            (0:09)
   Bm         D         G           A
He visto que tienes los ojos de un angel
      Bm           D        G      A
Que mira hacia el cielo buscando amor


e|----7-X-X-X-----7-X-X-X--7-X-X-X--7-X-X-X---|
b|----7-X-X-X-----7-X-X-X--7-X-X-X--7-X-X-X---|
g|----7-X-X-X-----7-X-X-X--7-X-X-X--7-X-X-X---|
D|----9-X-X-X-----9-X-X-X--9-X-X-X--9-X-X-X---|
A|----9-X-X-X-----9-X-X-X--9-X-X-X--9-X-X-X---|
E|----7-X-X-X-----7-X-X-X--7-X-X-X--7-X-X-X---|
      Bm           D       G        A
He entrado a un lugar prohibido y no puedo
    Bm   D  G       A
saliiiiiiiir si no es junto a tí


Primer Riff (0:27)

    Bm       D        G        A
e|-----------------------------------------|
b|--3--------3-3-3-3--3------3-5-5--5br~-3-|
g|----4~~--4--------4--4---4---------------|
D|-----------------------------------------|
A|-----------------------------------------|
E|-----------------------------------------|

    Bm       D        G         A
e|-----------------------------------------|
b|--3--------3-3-3-3--3--------------------|
g|----4~~--4--------4--4----(4)/2~~--------|
D|-----------------------------------------|
A|-----------------------------------------|
E|-----------------------------------------|
                                        (0:35)

Bm       D    G    A       Bm   D       G  A
 Aunque tengas tu dueño yo seguire en pieeee
Bm       D     G     A           Bm     D    G A
 Aunque duerman tus besos se que no descansareeee

Segundo Riff (0:54)

    Bm      D        G        A
e|-----------------------------------------|
b|-----3----5----3--------3---2-3-2-2h3p2--|
g|---4---4-----4---4----4---4--------------|
D|-----------------------------------------|
A|-----------------------------------------|
E|-----------------------------------------|

    Bm      D       G        A          Bm
e|-----------------------------------------|
b|-----3----5----3-------3---2-3-2-2h432---|
g|---4---4-----4---4---4---4------------4~-|
D|-----------------------------------------|
A|-----------------------------------------|
E|-----------------------------------------|
                                        (1:02)

     Bm         D        G        A
El tiempo ha dañado las mentes dormidas,
    Bm          D        G       A
Despiertan tus ansias tu sexo late

e|--7-X-X-X------7-X-X-X---7-X-X-X---7-X-X-X---|
B|--7-X-X-X------7-X-X-X---7-X-X-X---7-X-X-X---|
G|--7-X-X-X------7-X-X-X---7-X-X-X---7-X-X-X---|
D|--9-X-X-X------9-X-X-X---9-X-X-X---9-X-X-X---|
A|--9-X-X-X------9-X-X-X---9-X-X-X---9-X-X-X---|
E1--7-X-X-X------7-X-X-X---7-X-X-X---7-X-X-X---|
   Bm            D         G         A
Termina este infierno comienza este cielo
   Bm    D       G       A   A
Todo paraiso es solo de dos


Coro con Riff
                               (1:22)

   Bm        D    G     A       Bm    D     G        A
     Aunque tengas  tu dueño yo seguire en pieeeeeeeee

e|-2---------2---(3)-3p2-0-2-----2------------------------------|
B|-3---------3----------------3----3-2h3~---(2)3-3-2-3-2-2h3p2--|
G|-4---------2------------------------------4-------------------|
D|-4------------------------------------------------------------|
A|--------------------------------------------------------------|
E|--------------------------------------------------------------|

  Bm        D     G      A           Bm     D    G    A
    Aunque duerman  tus besos se que no descansareeeeeee

e|----------2----(3)-3p2-0-2---2---3--2---------------------|
b|----------3----------------------------3-2h3(3)-2-3-3-2~~-|
g|-4~~------2-----------------------------------------------|
D|----------------------------------------------------------|
A|----------------------------------------------------------|
E|----------------------------------------------------------|


INSTRUMENTAL    (1:39)

    Bm         D        G          A
e|--2-X-X-2-2--5-X-X-5--3-X-X-3-3--5-X-X-5---|
b|--3-X-X-3-3--7-X-X-7--3-X-X-3-3--5-X-X-5---|
g|--4-X-X-4-4--7-X-X-7--4-X-X-4-4--6-X-X-6---|   (x2)
D|--4-X-X-4-4--7-X-X-7--5-X-X-5-5--7-X-X-7---|
A|--2-X-X-2-2--5-X-X-5--5-X-X-5-5--7-X-X-7---|
E|----------------------3-X-X-3-3--5-X-X-5---|
                                                    (1:47)

   Bm         D        G          A
e|--12-----10-10-10-10--12-----10-10-10-10--|
b|--xx-----xx-xx-xx-xx--xx-----xx-xx-xx-xx--|
g|------------------------------------------|   (x2)
D|------------------------------------------|
A|------------------------------------------|
E|------------------------------------------|
                                                    (1:55)

   Bm         D        G          A
e|--12~--10~--9~--10~---12~--10~--9~--10~--|
b|-----------------------------------------|
g|-----------------------------------------|
D|-----------------------------------------|
A|-----------------------------------------|
E|-----------------------------------------|
                                           (2:00)

    Bm         D           G          A
e|-------------5-5-x-x-5---3-x-x-3-3--5-x-x-5---|
b|--12br-12~~--7-7-x-x-7---3-x-x-3-3--5-x-x-5---|
g|--11br-11~~--7-7-x-x-7---4-x-x-4-4--6-x-x-6---|
D|-------------7-7-x-x-7---5-x-x-5-5--7-x-x-7---|
A|-------------5-5-x-x-5---5-x-x-5-5--7-x-x-7---|
E|-------------------------3-x-x-3-3--5-x-x-5---|
                                                (2:05)

    Bm       D      G        A
e|-(10)------10---X-X-------------|
B|--12~~~~~~-12~~-X-X-12~~~~~~~---|
G|--11~~~~~~-11~~-X-X-11~~~~~~~---|  (x3)
D|--XX-------XX-X-XX-XXX----X-X---|
A|--------------------------------|
E|--------------------------------|
  uuuuuuhhhhuuuuuuuuuhhaaaaahhhhaaaaah
                                         (2:18)

   Bm  D    G           A
e|--------------------------------------|
B|---------12-12--12---12-12--12--------|
G|---------11-11--11---11-11--11--------|
D|--------------------------------------|
A|--------------------------------------|
E|--------------------------------------|
                                         (2:21)

Bm          D      G          A
 y aunque tengas... y aunque tengas...
Bm          D    G        A
 y aunque tengaaaaaaaaaaas

FINAL  (2:31)

   Bm         D            G           A
e|-14-10---12h10--12h10---14-10----15-----15-|
b|-------12-----12---------------12-----12---|
g|-------------------------------------------|
D|-------------------------------------------|
A|-------------------------------------------|
E|-------------------------------------------|

   Bm           D           G           A              Bm
e|-14-10---12h10--12h10---14-10----15-----15-----------2~--|
b|-------12-----12---------------12-----12-------------3~--|
g|-----------------------------------------------------4~--|
D|------------------------------------------------(2)--4~--|
A|-------------------------------------------(4)(5)----2~--|
E|---------------------------------------------------------|
                                                            (2:44)
                                                                 FIN


ESTA CANCION ES MUY BONITA, LA MAYORIA DE LIBIDO SON ASI
ASI QUE DISFRUTENLA Y TOQUENLA CON SU MANCHA
SALUDOS PARA MIS BRODERS, PARA MIS CONOCIDOS
Y PARA LIBIDO, QUE SON LO MAXIMO!!!


fReAkYlOcO


                               EL ROCK ES UN DEPORTE PRACTIQUENLO
                     ¡¡¡¡¡¡¡¡¡¡QUE VIVA EL ROOOOOOOOOOOCK PERUANO!
comments
We did not receive enough feedback on this tab! Please rate:
print report bad tab
1 2 3 4 5
I want to post or [tab]
guest
You may want to rate the tab now too:
select rating
Please do not post tabs as comments. Select "correction" instead!