Oops, an error
Loading. Please wait.

Ojos De Angel Tab

version 3
version 3

Interactive

543 views 1 this week
no commentswrite comment
1 2 3 4 5
please rate
add to favorites
launch autoscroll
font size
0
reset
how to read this tab
guitar tuner
Tab Pro tools
  • play this tab
  • loop segment
  • change instrument
  • show fretboard
  • metronome
×
Best way to learn
"Ojos De Angel"
Autoscroll
slow
fast
+/-
esc
set tempo
stop
Contributor
Difficulty
novice
Hola genta aka debuelta trayendoles otr kancion de libido espero ke les guste  es ojos 
angel akustika porciaka todos mis a portes anteriosres on akustiko kreo ke el akustiko es 
mejor ke la originales por eso las pongo esd pero ke les guste troonix_sk8@msn.com
 si ahy fallas mensahe ami msn nada mas  aki asta el proximo ke salga jaja---
INTRO:
   Bm         D            G           A
e|--2-----0---0-----2-----3---3-------------|
b|----3---------------3-----0---0-----------|
g|------4---4---4-------4-------------------|
D|------------------------------------------|
A|------------------------------------------|
E|------------------------------------------|

   Bm         D            G           A
e|--2-----0---0-----2-----3---3-------------|
b|----3---------------3-----0---------------|
g|------4---4---4-------4-------------------|
D|------------------------------------------|
A|------------------------------------------|
E|------------------------------------------|

   Bm         D         G           A
He visto que tienes los ojos de un ángel
      Bm           D        G      A
Que mira hacia el cielo buscando amor
      Bm           D       G        A
He entrado a un lugar prohibido y no puedo
    Bm   D  G       A
saliiiiiiiir si no es junto a ti

    Bm       D        G        A
e|--------------------------------------------|
b|--3-------3-3-3---3--------3--5-5s6s5-------|
g|----4-4---------4---4-4---------------------|
D|--------------------------------------------|
A|--------------------------------------------|
E|--------------------------------------------|

    Bm       D        G         A
e|--------------------------------------------|
b|--3-------3-3-3---3-------------------------|
g|----4-4---------4---4-4--2-2-2-2-2-2--------|
D|--------------------------------------------|
A|--------------------------------------------|
E|--------------------------------------------|

Bm       D    G    A       Bm   D       G  A
 Aunque tengas tu dueño yo seguire en pieeee
Bm       D     G     A           Bm     D    G A
 Aunque duerman tus besos se que no descansareeee

 Bm      D        G        A
e|---------------------------------------------|
b|-----3----5----3--------3---2-3--2~----------|
g|---4---4-----4---4----4---4------------------|
D|---------------------------------------------|
A|---------------------------------------------|
E|---------------------------------------------|

  Bm      D        G        A
e|---------------------------------------------|
b|-----3----5----3--------3---2-3-2-2h3h2-0----|
g|---4---4-----4---4----4---4------------------|
D|---------------------------------------------|
A|---------------------------------------------|
E|---------------------------------------------|

     Bm         D        G        A
El tiempo ha dañado las mentes dormidas,
    Bm          D        G        A
Despiertan tus ansias tu sexo la sed
  Bm            D         G         A
Termina este infierno comienza este cielo
   Bm    D       G       A
Todo paraíso es solo de dos

e|---0-0-0-0-0-0-0-0-0-----000-0--------------------|
B|---3-3-3-3-3-3-3-3-3-----333-3--------------------|  hagan algo provechoso
G|---3-3-3-3-3-3-3-3-3-----333—3--------------------|  escuchando la música
D|---3-3-3-3-3-3-3-3-3-----333-3--------------------|
A|--------------------------------------------------|
E|--------------------------------------------------|

  BM        D    G        A        Bm    D     G        A
     Aunque tengas  tu    dueño  yo seguire en pieeeeeeeee

e|-2---------2------3h2h0--0-2------2------------------------------|
B|-3---------3-------------------3----3-2—3---3--2---2—---2h3h2-0--|
G|-4---------2-----------------------------------------------------|
D|-4---------------------------------------------------------------|
A|-----------------------------------------------------------------|
E|-----------------------------------------------------------------|

  Bm        D     G      A           Bm     D    G    A
    Aunque duerman  tus besos se que no descansareeeeeee

e|-2---------2------3h2h0-0-2----2------------------------------|
B|-3---------3-----------------3---3-2—3--2-3-3-2--2~—----------|
G|-4---------2--------------------------------------------------|
D|-4------------------------------------------------------------|
A|--------------------------------------------------------------|
E|--------------------------------------------------------------|

    Bm        D                G         A
e|--22-2------5-5-5---55-------33-3------5-5-5---55----|
b|--33-3------7-7-7---77-------33-3------5-5-5---55----|
g|--44-4------7-7-7---77-------44-4------6-6-6---66----|     (x2)
D|--44-4------7-7-7---77-------55-5------7-7-7---77----|
A|--22-2------5-5-5---77-------55-5------7-7-7---77----|
E|-----------------------------------------------------|

e---7-7-7-7-7-7-7-7-7—10-10-10-10-10-10-10-10-10----|
B---------------------------------------------------|
G---------------------------------------------------|
                                                                   (x2)
e---7-7-7-7-7-7-7-7-7-10s11-11-11-11-11-11-11-11-11---------|
B-----------------------------------------------------------|
G-----------------------------------------------------------|

e-12-12-12-12-10-10-10-10-9-9-9-9-10-10-10-10-----|
B-------------------------------------------------|
G-------------------------------------------------|

e-12-12-12-12-10-10-10-10-9-9-9-9-10-10-10-10-10---|
B--------------------------------------------------|
G--------------------------------------------------|


e|----------------------------------------|
B|----12-12-12-12......12.....12-12-12----|
G|----11-11-11-11......11.....11-11-11----|
D|----------------------------------------|
A|----------------------------------------|
E|----------------------------------------|
Bm          D      G          A
 y aunque tengas... y aunque tengas...
Bm          D    G        A
 y aunque tengaaaaaaaaaaas


e|--2-----0---0-----2-----3---3-------------|
b|----3---------------3-----0---0-----------|
g|------4---4---4-------4-------------------|
D|------------------------------------------|
A|------------------------------------------|
E|------------------------------------------|

e|--2-----0---0-----2-----3---3---3-------2-----|
b|----3---------------3-----0---0--0------3-----|
g|------4---4---4-------4------------4----4-----|
D|----------------------------------------------|
A|----------------------------------------------|
E|----------------------------------------------|
comments
We did not receive enough feedback on this tab! Please rate:
print report bad tab
1 2 3 4 5
I want to post or [tab]
guest
You may want to rate the tab now too:
select rating
Please do not post tabs as comments. Select "correction" instead!