Oops, an error
Loading. Please wait.

Respirando Bass Tab

version 1
version 1

Whole song

1,256 views 1 this week
no commentswrite comment
1 2 3 4 5
please rate
add to favorites
launch autoscroll
font size
0
reset
guitar tuner
Autoscroll
slow
fast
+/-
esc
set tempo
stop
Help us to improve Ultimate-Guitar.com Take our survey!
×
Author
**** = TOCAS LA NOTA Y LA DEJAS SONAR
Estrofa

  Respirando de tu olor
E|-0-----2--0-3--0—6--5--------|
A|-----------------------------|
D|-----------------------------|
G|-----------------------------|

  Esperaba que el amor no iba a morir
E|-0----2---3-----—--------------|
A|------------3-5----------------|
D|--------------------4-5--------|
G|-------------------------------|

E|----------------—--------------|
A|--3-3-33-2---------------------|
D|-------------------------------|
G|-------------------------------|


Esto no es una infección
E|-0-----2--0-3--0—6--5--------|
A|-----------------------------|
D|-----------------------------|
G|-----------------------------|

Es tu veneno que inyectó algo en mí
E|-0----2---3-----—--------------|
A|------------3-5----------------|
D|--------------------4-5--------|
G|-------------------------------|

E|------------0-3-—--------------|
A|--3-3-33-2---------3-3-33-2----|
D|-------------------------------|
G|-------------------------------|

   Ah, ah, ah.. A donde van?
E|-0---3-------------------------|
A|----------5*****----5—3--------|
D|-----------------2-------------|
G|-------------------------------|

  Los hombres que sueñan
E|----------------7-7-7----------|
A|---5-----------7-7-7----9-10---|
D|-------------------------------|
G|-------------------------------|

  Ah, ah, ah... ¡Donde van!
E|-------------------------------|
A|-0---3**********-------------5-|
D|-------------------------------|
G|-------------------------------|

Puente

E|------------------------7--7--------7---------|
A|-7--7----------3--3-222------5-777-5---33333-2|
D|------5-777-5---------------------------------|
G|----------------------------------------------|



En tus labios al prender
E|-0-----2--0-3--0—6--5--------|
A|-----------------------------|
D|-----------------------------|
G|-----------------------------|

La primavera que me hizo sentir muy bien
E|-0----2---3-----—--------------|
A|------------3-5----------------|
D|--------------------4-5--------|
G|-------------------------------|

E|----------------—--------------|
A|--3-3-33-2---------------------|
D|-------------------------------|
G|-------------------------------|

Alguien cae a mis pies
E|-0-----2--0-3--0—6--5--------|
A|-----------------------------|
D|-----------------------------|
G|-----------------------------|

Ya no quiero ser tu esclavo otra vez
E|-0----2---3-----—--------------|
A|------------3-5----------------|
D|--------------------4-5--------|
G|-------------------------------|

E|------------0-3-—--------------|
A|--3-3-33-2---------3-3-33-2----|
D|-------------------------------|
G|-------------------------------|


Ah, ah, ah... A donde van?
Los hombres que sueñan
Ah, ah, ah... ¡Donde van!

  Respirando de tu olor,
E|-0-----2--0-3--0—6--5--------|
A|-----------------------------|
D|-----------------------------|
G|-----------------------------|

Esperaba que el amor no iba a morir
E|-0----2---3-----—--------------|
A|------------3-5----------------|
D|--------------------4-5--------|
G|-------------------------------|

E|------------0-3-—--------------|
A|--3-3-33-2---------3-3-33-2----|
D|-------------------------------|
G|-------------------------------|


Esto no es una infección
E|-0-----2--0-3--0—6--5--------|
A|-----------------------------|
D|-----------------------------|
G|-----------------------------|

Es tu veneno que inyectó algo en mí
E|-0----2---3-----—--------------|
A|------------3-5----------------|
D|--------------------4-5--------|
G|-------------------------------|

E|------------0-3-—--------------|
A|--3-3-33-2---------3-3-33-2----|
D|-------------------------------|
G|-------------------------------|


Ah, ah, ah... A donde van?
Los hombres que sueñan
Ah, ah, ah... ¡Donde van!
Suggest correction
What's this?
You can suggest a correction to this tab. Community and Mods will review your correction and vote to approve or reject it.
comments
We did not receive enough feedback on this tab! Please rate:
print report bad tab
1 2 3 4 5
guest
You may want to rate the tab now too:
select rating
Please do not post tabs as comments. Select "correction" instead!