Oops, an error
Loading. Please wait.

Tiempos Tranquilos Tab

version 1
version 1

Whole song

645 views 1 this week
no commentswrite comment
1 2 3 4 5
please rate
add to favorites
launch autoscroll
font size
0
reset
how to read this tab
guitar tuner
Autoscroll
slow
fast
+/-
esc
set tempo
stop
Help us to improve Ultimate-Guitar.com Take our survey!
×
Author
ARPEGIOS

         1                  2
   E-----9---------  E--------------|
   B---9-----------  B--------------|
   G-9-------------  G-----4-6p4----|
   D---------------  D--4/6------6--|
   A---------------  A--------------|
   E---------------  E--------------|
         3                  4
   E-----9---------  E-----4---------|
   B-----9---------  B-------5-------|
   G-----9---------  G---6-----6-----|
   D---------------  D-6-------------|
   A---------------  A---------------|
   E---------------  E---------------|

   INTRO

   E-----------4--------------7--5-4-5-4-4--------------------------|
   B-----5-------5------5---5--------------5-4-4h5p4---4-4h5p4------|
   G---6---6-------6--6---6--------------------------6---------4/6--|
   D-6-------6------------------------------------------------------|
   A----------------------------------------------------------------|
   E----------------------------------------------------------------|

   C#m                               G#
      Tanto tiempo tranquilos en el corazón
                   F#         A*
      Y ahora estar acá, en mares tan profundos ya   arpegio 1
   C#m         G#             F#       A*
      Entras al verte tras mi mente diferente

   RIFF 1

   E-------------------------------7--------------------------------|
   B-7-7-7-7-7-9---7-7-7-7-7-9-7-9---9-7----4-4h5-4-----------------|
   G-------------6------------------------6---------4/6-------------|
   D----------------------------------------------------------------|
   A----------------------------------------------------------------|
   E----------------------------------------------------------------|

   C#m                         G#
      Esas sensaciones que a mi cuerpo das
      F#                        A*
      Hoy me hacen pensar que no quiero verte volar  arpegio 2
   C#m          G#
      Es el concepto entre tú y yo  arpegio 3
      F#          A*
      Lo que confunde mi sentir


    B5         C5       G*              A5
      Déjame solo, un momento, en mi calma
    B5            C5            G*          A*
      O llena el vacío tan profundo en mi alma

   PRIMER SOLO

   E----------------------------------------------------------------|
   B----------------------------------------------------------------|
   G-4/6-6-6/8-8-8/9-9-9/11-11-11/9-9-9/8-8-8/6-6-6/4-4-4/6---------|
   D----------------------------------------------------------------|
   A-2/4-4-4/6-6-6/7-7-7/9--9---9/7-7-7/9-6-6/4-4-4/2-2-2/4---------|
   E----------------------------------------------------------------|

   E---------------------------------12-11-9---------9--------------|
   B-----5p4---------------------------------12----9---9-9-9h11p9---|
   G---6-----4-4h6-9-9h11-9----9--11------------11------------------|
   D-4----------------------11--------------------------------------|
   A----------------------------------------------------------------|
   E----------------------------------------------------------------|

   E----------------------------------------------------------------|
   B-5-5h7p5-4-5----------------5-----------------------------------|
   G-------------6------6---4-6---6---------------------------------|
   D------------------6---6-----------------------------------------|
   A----------------------------------------------------------------|
   E----------------------------------------------------------------|

   C#m                         G#
      Esas sensaciones que a mi cuerpo das
      F#                        A*
      Hoy me hacen pensar que no quiero verte volar  arpegio 4
   C#m          G#
      Es el concepto entre tú y yo
     F#          A*
      Lo que confunde mi sentir


    B5         C5       G*              A5
      Déjame solo, un momento, en mi calma
    B5            C5            G*          A*
      O llena el vacío tan profundo en mi alma

   SEGUNDO SOLO

   E----------------------------------------------------------------|
   B------------------4-4h5p4-5-5/7-999-9-7-9-7-4h5p4---------------|
   G--------------4-6-----------------------------------------------|
   D----------4-6---------------------------------------------------|
   A------4-6-------------------------------------------------------|
   E--4-7-----------------------------------------------------------|

   E-9-11-11/12-11-9----9-11-11/12-11-14-14b------------------------|
   B-9---------------9--9-------------------------------------------|
   G-9------------------9-------------------------------------------|
   D----------------------------------------------------------------|
   A----------------------------------------------------------------|
   E----------------------------------------------------------------|

   final

   E-------------------------------7--------------------------------|
   B-7-7-7-7-7-9---7-7-7-7-7-9-7-9---9-7---9-4h5p4------------------|
   G-------------6-----------------------6----------4/6-------------|
   D----------------------------------------------------------------|
   A----------------------------------------------------------------|
   E----------------------------------------------------------------|

   E-------------------------7---7-7h9-------------------9----------|
   B-7-7-7-7-7-9---7-7-7-7-7---9-------------------------9----------|
   G-------------6----------------------11br-9-11br-9-11-9----------|
   D----------------------------------------------------------------|
   A----------------------------------------------------------------|
   E----------------------------------------------------------------|
Suggest correction
What's this?
You can suggest a correction to this tab. Community and Mods will review your correction and vote to approve or reject it.
comments
We did not receive enough feedback on this tab! Please rate:
print report bad tab
1 2 3 4 5
guest
You may want to rate the tab now too:
select rating
Please do not post tabs as comments. Select "correction" instead!