Oops, an error
Loading. Please wait.

Tres Bass Tab

version 1
version 1

Whole song

Interactive

3,421 views 6 this week
no commentswrite comment
1 2 3 4 5
please rate
add to favorites
launch autoscroll
font size
0
reset
guitar tuner
Autoscroll
slow
fast
+/-
esc
set tempo
stop
Help us to improve Ultimate-Guitar.com Take our survey!
×
Author
isem 2,324
INTRO:
G-----------------------------------------------------|
D----------0------------------------------------------|
A--0---2----------------------------------------------|
E-----------------------------------------------------|

G-----------------------------------------------------|
D-----------------------------------------------------|
A-----------------------2-3-3-3-----------------------|
E---0-0-0-0---2-3-3-3-------------3-3-3-2-2-2---------|

G-----------------------------------------------------|
D---------------------------------2-2-2-2-1-1-1-1-----|
A-----------------------2-3-3-3-----------------------|
E---0-0-0-0---5-5-5-5---------------------------------|

1RA ESTROFA:

HOY QUE TE EMPIEZO A EXTRAÑAR......

G------------------------------------------------------------|
D-------------------------------------------------0-0-0-0----|
A-----------------------3-3-3-3-----------2-2-2-2------------|  x2
E---0-0-0-0---5-5-5-5-------------3-3-3-3--------------------|

EN EL PUNTEO IGUAL QUE EL INTRO
G-----------------------------------------------------|
D-----------------------------------------------------|
A-----------------------2-3-3-3-----------------------|
E---0-0-0-0---2-3-3-3-------------3-3-3-2-2-2---------|

G-----------------------------------------------------|
D---------------------------------2-2-2-2-1-1-1-1-----|
A-----------------------2-3-3-3-----------------------|
E---0-0-0-0---5-5-5-5---------------------------------|

2DA ESTROFA:
HOY QUE EL TIEMPO NOS CAMBIO:
G------------------------------------------------------------|
D-------------------------------------------------0-0-0-0----|
A-----------------------3-3-3-3-----------2-2-2-2------------|
E---0-0-0-0---5-5-5-5-------------3-3-3-3--------------------|

G-------------------------------------------------------------------|
D-------------------------------------------------0-0-0-0-1-1-1-1---|
A-----------------------3-3-3-3-----------2-2-2-2-------------------|
E---0-0-0-0---5-5-5-5-------------3-3-3-3---------------------------|

DE NUEVO EL PUNTEO

G-----------------------------------------------------|
D-----------------------------------------------------|
A-----------------------2-3-3-3-----------------------|
E---0-0-0-0---2-3-3-3-------------3-3-3-2-2-2---------|

G-----------------------------------------------------|
D---------------------------------2-2-2-2-1-1-1-1-----|
A-----------------------2-3-3-3-----------------------|
E---0-0-0-0---5-5-5-5---------------------------------|

DESPUES DEL CAMBIO IGUAL:
G-----------------------------------------------------|
D-----------------------------------------------------|
A-----------------------2-3-3-3-----------------------|
E---0-0-0-0---2-3-3-3-------------3-3-3-2-2-2---------|

G-----------------------------------------------------|
D---------------------------------2-2-2-2-1-1-1-1-----|
A-----------------------2-3-3-3-----------------------|
E---0-0-0-0---5-5-5-5---------------------------------|

Y UNA VES MAS EN TOTAL SON TRES VECES-..... VERDA Q ESTA FACIL??

EN EL CORO: AMAME, MIENTEME............
G-----------------------------------------------------|
D-----------------------------------------------------|
A-----------------------2-3-3-3-----------------------|
E---0-0-0-0---2-3-3-3-------------3-3-3-2-2-2---------|

G-----------------------------------------------------|
D---------------------------------2-2-2-2-1-1-1-1-----|
A-----------------------2-3-3-3-----------------------|
E---0-0-0-0---5-5-5-5---------------------------------|


AHHHHHHHHHHHH AHHHHHHH EHHHHHHHHHH HEHHHHHHH
G------------------------------------------------------------|
D-------------------------------------------------0-0-0-0----|
A-----------------------3-3-3-3-----------2-2-2-2------------|
E---0-0-0-0---5-5-5-5-------------3-3-3-3--------------------|

DESPUES DE UN DIA SIN TI........
G-------------------------------------------------------------------|
D-------------------------------------------------0-0-0-0-1-1-1-1---|
A-----------------------3-3-3-3-----------2-2-2-2-------------------|
E---0-0-0-0---5-5-5-5-------------3-3-3-3---------------------------|
Suggest correction new What's this?
You can suggest a correction to this tab. Community and Mods will review your correction and vote to approve or reject it.
comments
We did not receive enough feedback on this tab! Please rate:
print report bad tab
1 2 3 4 5
guest
You may want to rate the tab now too:
select rating
Please do not post tabs as comments. Select "correction" instead!