Oops, an error
Loading. Please wait.

Tres Tab

version 1
version 1

Interactive

12,185 views 6 this week
no commentswrite comment
1 2 3 4 5
excellent!
x 3
add to favorites
launch autoscroll
font size
0
reset
how to read this tab
guitar tuner
Autoscroll
slow
fast
+/-
esc
set tempo
stop
Help us to improve Ultimate-Guitar.com Take our survey!
×
Author
Nota: Lo que esta en parentesis es la 2da guitarra

Intro:
5/0,5/2,4/0  E5-E5II-G[d]A[d]...G[d]... - ---E5-G[d]-C5-3/9..3/8.. a destiempo
              
            (Em.....G.....C.....G.....D - Em.....G.....C.....E5II.E5bII) 

(Em                      A   Cm
Hoy que empiezo a extrañar
            GII
Donde estaras
Bm                    D        
Hoy que busque en tu lugar 
Em                 A     Cm                  
Amiga no supe entender
        GII  
perdoname
Bm               D)
volveremos a intentar
     
Amiga no.... acompañamiento de la primera
e \--------------------------------3---------3-----------2-----------2-----
B |----0-----------2L3L2-------------4---------3-------3---3-------3---3---
G |------0-------2-------2-------5---------4-----4---4-------2---2-------2-
D |--------2---2-----------2---5---------5---------------------0-----------
A |----------0---------------3---------------------2-----------------------
E /------------------------------------3-----------------------------------


riff I:

   (Em                G              C                    G         D
e \-12-------12-------10----10-----------------------------------------------
B |----12-12----12-12----12----12-12-10L12-12-12-12-10-12--------------------
G |-------------------------------------------------------9--9-9-9--8--8-8-8-

    Em                G                    C                  E5II
e \-12-------12----12s14-14-------15-------17-------17----------------------- 
B |----12-12----12----------12-12----12-12----12-12----12-12--12-12-12-12-12-
G |------------------------------------------------------------9--9--9--9--9-
       E5bII)
e \------------------------------
B |-12-11-11-11-11s--------------
G |--9--8--8--8--8s--------------

Hoy que el tiempo nos cambio
donde andarás
te necesito encontrar
después desaparecer
tal vez lejos de mi
sigo guardando el dolor ohhh 
                            (D#    E[d])

desaparecer..... acompañamiento de la primera
e \------------------------------3-----------3---------2-----------2--------- 
B |--0-----------2L3L2-------------4-------2---3-----3---3-------3---3-----4-
G |----0-------2-------2-------5---------4---------4-------4---2-------2-----
D |------2---2-----------2---5---------5---------------------0-----------1---
A |--------0---------------3---------------------2---------------------------
E /----------------------------------3---------------------------------------
e \-3-----4-
B |-----5---
G |---4-----
D |---------
A |---------
E |---------
acompañamiento solo:

 
solo:
riff I

 (Em           G             C           G         D      Em        G
e \--------------------------------------------------------12f-12~~12f-12ffs-
B |---------8---------8-10f--10f-10f-10f-------------------------------------
G |-----7-9---9---7-9----9f---9f--9f--9f-9--9-9-9--8--8-8-8------------------   
D |-7-9----------------------------------------------------------------------

    C             E5II)
e \------------------------------
B |-7-8L7-7-8L7-5-5--------------
G |------------------------------

intro

(Em
Amame
 G    
mienteme
  C   
tócame
  G  D
piensa en mi
  Em        
extráñame
  G     
abrazame
  E5II  E5bII)   

    amame           mienteme          tocame          piensa en mi
e \--------------------------------------------------------------------------
B |--------------------------------------------------------------------------
G |-9--9-9-99999999--9--9-9-999999999--9--9-9-99999999-12121212111111--------

    extrañame        abrazame          ooooooooohhhhhhh
e \------------------------------------ E5II Eb5II
B |------------------------------------
G |-9--9-9-99999999--9--9-9-999999999--

 
   ahhhhhhh  hhhhh   hhhhhhhhhhh    ehhh ahhhhhh 
   Em      A       Cm       GII      Bm      D
e \------------12---------------------------------
B |---------------12------------------------------

después un día sin ti
puedo morir
dime perdí la razóoooooooooooooooooooon
                    (D,D#,E[d])
   
despues.... acompañamiento de la primera
e \--0-----------------------------3-----------3---------2-----------2-------
B |--0-0-----------2L3L2-------------4-------2---3-----3---3-------3---3-----
G |--0---0-------2-------2-------5---------4---------4-------4---2-------2---
D |--------2---2-----------2---5---------5---------------------0-----------1-
A |----------0---------------3---------------------2-------------------------
E /------------------------------------3-------------------------------------
e \--3-----4-
B |4-----5--- 
G |----4-----
D |----------
A |----------
E /----------

 (acompañamiento del intro)
                                E5II x E5II G5II-F#5II E5II E5II-E5bII

amame       mienteme    tócame      piensa en mi    extrañame  abrazame  
 (Em         G           C           G   D     Em    G          C
 E5II-F#5II  G5IIsA5IIs  G5II-F#5II  E5II-D5-C5-B5..            C5

 ohhhhhhhhhh
 E5II  E5bII)
 E5II  E5bII

 amame            mienteme         tocame           piensa en mi        
 (Em              G                C                G   D     Em               
 E5II-C#5II-B5II  E5II-C#5II-B5II  E5II-C#5II-B5II  C#5II....[2/11]......

 extrañame                      abrazame   ohhhhhhhhoohhoohooooooooohoho
 G                              C          E5II  E5bII-E5bII-E5bII-E5bII)
3/9,3/9-3/9-3/9-3/12-3/12-2/12-3/12 E5III....  E5II  E5bII-E5bII-E5bII-E5bII
Suggest correction
Give kudos to tab author, rate the tab!
1 2 3 4 5
comments
print report bad tab
guest
You may want to rate the tab now too:
select rating
Please do not post tabs as comments. Select "correction" instead!