Oops, an error
Loading. Please wait.

Tres Tab

version 2
version 2

Interactive

2,100 views 1 this week
no commentswrite comment
1 2 3 4 5
please rate
add to favorites
launch autoscroll
font size
0
reset
how to read this tab
guitar tuner
Autoscroll
slow
fast
+/-
esc
set tempo
stop
Help us to improve Ultimate-Guitar.com Take our survey!
×
Contributor
gzuckpj 172
Em:022000
G: 355433 y 320033
A: x02220
Bm:x24432
Cm:x35543
D: 200232
E5:x7999x
D#5:x6888x
El tiempo nuse
pero sake lo kon la ayuda de la musica jajaja
bye de Oxh3X....troonx_sk8@msn.com

Intro:

E|------------------------3/5-5\3-3-3-3-2-2--|
B|------------------------3/5-5\3-3-3-3-3-3--|
G|-------------------------------------------|
D|----------2-2-2-2-0-0-0--------------------|
A|-------5--2-2-2-2-2-2-2--------------------|
E|--/5-7----0-0-0-0-3-3-3--------------------|
 |          Em5     G5      C5      G5  D    |
E|-------------------------------------------|
B|-------------------------------------------|
G|--------------------------5-5-5-5----------|
D|----------2-2-2-2-5-5-5-5-5-5-5-5-0-0------|
A|-------5--2-2-2-2-5-5-5-5-3-3-3-3-2-2-0-0--|
E|--/5-7----0-0-0-0-3-3-3-3---------3-3-2-2--|

          Full
        /      \
E|-----7-------7-----------------------------|
B|-----10------10----------------------------|
G|-----------------5-5-5-5--9-9-9-9-8-8-8-8--|
D|-2-2-----5-5-----5-5-5-5--9-9-9-9-8-8-8-8--|
A|-2-2-----5-5-----3-3-3-3--7-7-7-7-6-6-6-6--|
E|-0-0-----3-3-------------------------------|
 | Em5     G5      C5       E5      D#5      |
E|-------------------------------------------|
B|-------------------------------------------|
G|-----------------5-5-5-5--9-9-9-9-8-8-8-8--|
D|-2-2-2-2-5-5-5-5-5-5-5-5--9-9-9-9-8-8-8-8--|
A|-2-2-2-2-5-5-5-5-3-3-3-3--7-7-7-7-6-6-6-6--|
E|-0-0-0-0-3-3-3-3---------------------------|


Estrofa 1:

  Em                      A      Cm          G
  Hoy que empiezo a extrañar,     donde estaras

  Bm                      D
  hoy que busque en tu lugar

  Em                  A          Cm         G
E|----------0------------------------3---------3-----|
B|-------0-----0-------2/3\2-------4---4---------3---|
G|----0----------0----2------4-2-5-------5---------4-|
D|------------------------------------------5--------|
A|---------------------------------------------------|
E|-0-------------------------------------------------|
  Amiga no supe entender,        perdoname,

  Bm                      D
E|---------------2-----------------2-----------------|
B|------3-----3-----3--------3---3---3---------------|
G|-4-------4----------4--------2-------2-------------|
D|-4----------------------0--------------------------|
A|---------------------------------------------------|
E|---------------------------------------------------|
  volveremos a intentar


Instrumental:

   Em5               G5
E|-12-------12-------10-------10---------------------|
B|----12-12----12-12----12-12----12-12---------------|
G|---------------------------------------------------|
D|---------------------------------------------------|
A|---------------------------------------------------|
E|---------------------------------------------------|

     C5                 G5        D
E|---------------------------------------------------|
B|-10/12-12-12-12-10-12------------------------------|
G|----------------------9-9-9-9-9-8-8-8--------------|
D|---------------------------------------------------|
A|---------------------------------------------------|
E|---------------------------------------------------|

   Em5                G5                  C5
E|-12------12------12/14-----15------17------17------|
B|---12-12---12-12------12-12--12-12---12-12---12-12-|
G|---------------------------------------------------|
D|---------------------------------------------------|
A|---------------------------------------------------|
E|---------------------------------------------------|

   E5              D#5
E|---------------------------------------------------|
B|-12-12-12-12-12--10-10-10-10-----------------------|
G|-14-14-14-14-14--12-12-12-12-----------------------|
D|---------------------------------------------------|
A|---------------------------------------------------|
E|---------------------------------------------------|


Estrofa 2:


  Em                        A       Cm          G
  Hoy que el tiempo nos cambio,     donde andaras

  Bm                  D
  te necesito encontrar,

  Em                  A          Cm         G
E|----------0------------------------3---------3-----|
B|-------0-----0-------2/3\2-------4---4---------3---|
G|----0----------0----2------4-2-5-------5---------4-|
D|------------------------------------------5--------|
A|---------------------------------------------------|
E|-0-------------------------------------------------|
   despues    desaparecer         talvez, lejos de mi

  Bm                      D           D#
E|---------------2----------------2---3-3-5-5-6-6----|
B|------3-----3-----3-------3-3-3-----4-4-6-6-7-7----|
G|-4-------4----------4------2-----2--3-3-5-5-6-6----|
D|------------------------0--------------------------|
A|---------------------------------------------------|
E|---------------------------------------------------|
   sigo   guardando   el    dolor orrrrrrrrrrrrr


Instrumental:

   Em5               G5
E|-12-------12-------10-------10---------------------|
B|----12-12----12-12----12-12----12-12---------------|
G|---------------------------------------------------|
D|---------------------------------------------------|
A|---------------------------------------------------|
E|---------------------------------------------------|

     C5                 G5        D
E|---------------------------------------------------|
B|-10/12-12-12-12-10-12------------------------------|
G|----------------------9-9-9-9-9-8-8-8--------------|
D|---------------------------------------------------|
A|---------------------------------------------------|
E|---------------------------------------------------|

   Em5                G5                  C5
E|-12------12------12/14-----15------17------17------|
B|---12-12---12-12------12-12--12-12---12-12---12-12-|
G|---------------------------------------------------|
D|---------------------------------------------------|
A|---------------------------------------------------|
E|---------------------------------------------------|

   E5              D#5
E|---------------------------------------------------|
B|-12-12-12-12-12--10-10-10-10-----------------------|
G|-14-14-14-14-14--12-12-12-12-----------------------|
D|---------------------------------------------------|
A|---------------------------------------------------|
E|---------------------------------------------------|


Internedio:
   Em5             G5     C5           G5      D
                            Full
                         /        \
E|---------------------------------------------------|
B|-----------8---------8/10-10-10-10-8---------------|
G|-------7/9--9---7/9------------------9-9-9-9-8-8-8-|
D|---7/9---------------------------------------------|
A|---------------------------------------------------|
E|-0-------------------------------------------------|

   Em5            G5     C5     E5
    Full    Full
    /      /
E|-12-12--12-12-------------------------|
B|---------------6/8-7-5-8-7-5-5-(5)----|
G|--------------------------------------|
D|--------------------------------------|
A|--------------------------------------|
E|--------------------------------------|



E|------------------------3/5-5\3-3-3-3-2-2--|
B|------------------------3/5-5\3-3-3-3-3-3--|
G|-------------------------------------------|
D|----------2-2-2-2-0-0-0--------------------|
A|-------5--2-2-2-2-2-2-2--------------------|
E|--/5-7----0-0-0-0-3-3-3--------------------|
 |          Em5     G5      C5      G5  D    |
E|-------------------------------------------|
B|-------------------------------------------|
G|--------------------------5-5-5-5----------|
D|----------2-2-2-2-5-5-5-5-5-5-5-5-0-0------|
A|-------5--2-2-2-2-5-5-5-5-3-3-3-3-2-2-0-0--|
E|--/5-7----0-0-0-0-3-3-3-3---------3-3-2-2--|


   Em5     G5      C5       E5      D#5
E|-------------------------------------------|
B|-------------------------------------------|
G|-----------------5-5-5-5--9-9-9-9-8-8-8-8--|
D|-2-2-2-2-5-5-5-5-5-5-5-5--9-9-9-9-8-8-8-8--|
A|-2-2-2-2-5-5-5-5-3-3-3-3--7-7-7-7-6-6-6-6--|
E|-0-0-0-0-3-3-3-3---------------------------|



Coro:

  Em5    G5        C5       G   D     Em5
E|-------------------------------------------|
B|-------------------------------------------|
G|-9-9-9-9-9-9-9-9-9-9-9-9-9-9-9-9-9-9-9-9-9-|
D|-------------------------------------------|
A|-7-7-7-7-7-7-7-7-7-7-7-7-7-7-7-7-7-7-7-7-7-|
E|-0-0-0-0-0-0-0-0-0-0-0-0-0-0-0-0-0-0-0-0-0-|
   Amame, mienteme, tocame ..piensa en mi

  G5         C5           E5       D#5
E|-------------------------------------------|
B|-------------------------------------------|
G|-9-9-9-9-9-9-9-9-9-9-9-9--9-9-9-9-8-8-8-8--|
D|--------------------------9-9-9-9-8-8-8-8--|
A|-7-7-7-7-7-7-7-7-7-7-7-7--7-7-7-7-6-6-6-6--|
E|-0-0-0-0-0-0-0-0-0-0-0-0-------------------|
   extrañame, abrazame     ohohoooo ahahhhh



Esstrofa 3:

   Em         A         Cm         G       Bm      D
E|-----------12----(12)------------------------------|
B|-------------12------(12)--------------------------|
G|---------------------------------------------------|
D|-2-------------------------------------------------|
A|-2-------------------------------------------------|
E|-0-------------------------------------------------|
         ohohoooo           ahahhhh

  Em                  A          Cm         G
E|----------0------------------------3---------3-----|
B|-------0-----0-------2/3\2-------4---4---------3---|
G|----0----------0----2------4-2-5-------5---------4-|
D|------------------------------------------5--------|
A|---------------------------------------------------|
E|-0-------------------------------------------------|
   Despues de un dia sin ti,          puedo morir

  Bm                      D           D#
E|---------------2----------------2---3-3-5-5-6-6----|
B|------3-----3-----3-------3-3-3-----4-4-6-6-7-7----|
G|-4-------4----------4------2-----2--3-3-5-5-6-6----|
D|------------------------0--------------------------|
A|---------------------------------------------------|
E|---------------------------------------------------|
   dime    perdi   la   razon        ohohohohooooooo


   Em5    G5        C5       G   D
E|-------------------------------------------|
B|-------------------------------------------|
G|-9-9-9-9-9-9-9-9-9-9-9-9-9-9-9-9-9-9-9-9-9-|
D|-------------------------------------------|
A|-7-7-7-7-7-7-7-7-7-7-7-7-7-7-7-7-7-7-7-7-7-|
E|-0-0-0-0-0-0-0-0-0-0-0-0-0-0-0-0-0-0-0-0-0-|
   ohohohohooooooo


   Em5    G5        C5      E5      D#5
E|-------------------------------------------|
B|-------------------------------------------|
G|-9-9-9-9-9-9-9-9-9-9-9-9--9-9-9-9-8-8-8-8--|
D|--------------------------9-9-9-9-8-8-8-8--|
A|-7-7-7-7-7-7-7-7-7-7-7-7--7-7-7-7-6-6-6-6--|
E|-0-0-0-0-0-0-0-0-0-0-0-0-------------------|


Coro:

  Em5    G5        C5       G   D     Em5
E|-------------------------------------------|
B|-------------------------------------------|
G|-9-9-9/11-11-11/12-12-12/14-14-14\12\11\9--|
D|-------------------------------------------|
A|-7-7-7/9--9--9--10-10-10/12-12-12\10\9--7--|
E|-------------------------------------------|
   Amame, mienteme, tocame ..piensa en mi

  G5         C5             E5       D#5
E|-------------------------------------------|
B|-------------------------------------------|
G|-9-9-9-9-9-9-9-9-9-9-9-9--9-9-9-9-8-8-8-8--|
D|--------------------------9-9-9-9-8-8-8-8--|
A|-7-7-7-7-7-7-7-7-7-7-7-7--7-7-7-7-6-6-6-6--|
E|-------------------------------------------|
   extrañame, abrazame     ohohoooo ahahhhh


Coro:

   Em5     G5       C5       G   D     Em5
        Full     Full     Full
        /        /        /     |------------
E|-----7--------7--------7-------------------|
B|-----10-------10-------10------------------|
G|------------------5------------------------|
D|-2-2-----5-5------5------------------------|
A|-2-2-----5-5------3------------------------|
E|-0-0-----3-3-------------------------------|
   Amame, mienteme, tocame     piensa en mi

  G5         C5             E5       D#5
  ----Free Time------------|
E|-------------------------------------------|
B|-------------------------------------------|
G|--------------------------9-9-9-9-8-8-8-8--|
D|--------------------------9-9-9-9-8-8-8-8--|
A|--------------------------7-7-7-7-6-6-6-6--|
E|-------------------------------------------|
   extrañame, abrazame     ohohoooo ahahhhh
comments
We did not receive enough feedback on this tab! Please rate:
print report bad tab
1 2 3 4 5
I want to post or [tab]
guest
You may want to rate the tab now too:
select rating
Please do not post tabs as comments. Select "correction" instead!