Oops, an error
Loading. Please wait.

Un Nuevo Juego Tab

version 1
version 1

Whole song

123 views 1 this week
no commentswrite comment
1 2 3 4 5
please rate
add to favorites
launch autoscroll
font size
0
reset
how to read this tab
guitar tuner
Autoscroll
slow
fast
+/-
esc
set tempo
stop
Help us to improve Ultimate-Guitar.com Take our survey!
×
Author
isem 2,334
Intro
e|---------------------------------------------------------------------|
B|---------------------------------------------------------------------|
G|---------------------------------------------------------------------|
D|---------2-2---4---------------------------2-2--4---4--4/6--2--4--2--|
A|--4--4-------------------2--2---4----4--4----------------------------|
E|-------------------4--4----------------------------------------------|


(1era guitarra)
e|--------------------------------------------------------------|
B|--------------------------------------------------------------|
G|-----------------------------------------------------------5--|
D|----------------------------------------------------4--4/6----|
A|--------------------2/4--2---------------------4/6------------|
E|---4--2--4--2--4------------4----4--2--4--2--4----------------|
Esto último se toca de fondo una vez,
mientras la 2da guitarra hace este rasgueo

C#m           *
uhhhhhhhhhhhhh

C#m            *
uhhhhhhhhhhhhh


C#m
Inventaré un nuevo juego
*
Uno que se ajuste a mi velocidad
C#m
Inventaré un nuevo juego
*
Uno que me quiera dar felicidad

Bm
Podrás escucharme
            E
Desde aquí yo miro
           Bm
Tu cara malvada
           E
Tus dientes con filo

C#m                           *
Dime, dime, dime si te cuesta tu pureza
e|------------------------------|
B|------------------------------|
G|--4/6--4-----4----------------|
D|------------6----6------------|
A|------------------------------|
E|------------------------------|

C#m                            *
Dime, dime, dime si te cuesta tu pureza
e|------------------------------|
B|------------------------------|
G|--4/6--4-----4----------------|
D|------------6----6------------|
A|------------------------------|
E|------------------------------|


Bm   E
e|---------------------------------------------------------------|
B|---------------------------------------------------------------|
G|---------------------------------------------------------------|
D|---------------0--/2--/2--0----------------0--/2--/2--0--------|
A|---2-2--/2---------------------2--2---/2-----------------2--4--|
E|---------------------------------------------------------------|


C#m                      *
Mccumbachero Mccumbachero

e|----9---7-----9--7---------9---7--7--4-----|
B|----9------9-------9-------9---9--5--5-----|
G|-------------------------------------------|
D|-------------------------------------------|
A|-------------------------------------------|
E|-------------------------------------------|

Bm   E
e|--------------------------------|
B|--7--7--6--5--5--6--7-----------|
G|--9--9--8--7--7--8--9-----------|
D|--------------------------------|
A|--------------------------------|
E|--------------------------------|  (x3)

Repetir Intro
e|--------------------------------------------------------------------|
B|--------------------------------------------------------------------|
G|--------------------------------------------------------------------|
D|---------2-2---4---------------------------2-2--4---4--4/6--2--4--2-|
A|--4--4-------------------2--2---4----4--4---------------------------|
E|-----------------4--4-----------------------------------------------|

Solo
e|--------------------------------7---4----------7--4---------|
B|---------------------------------------7---5----------7---5-|
G|----------4---------------4---------------------------------|
D|------6------6-------6-------6------------------------------|
A|---4-------------4------------------------------------------|
E|------------------------------------------------------------|


e|--------------------------------7---4----7---9---14/16--14---12---9---|
B|----------------------------------------------------------------------|
G|----------4---------------4-------------------------------------------|
D|------6------6-------6-------6----------------------------------------|
A|---4-------------4----------------------------------------------------|
E|----------------------------------------------------------------------|


C#m
Inventaré un nuevo juego
*
Uno que se ajuste a mi velocidad
C#m
Inventaré un nuevo juego
*
Uno que me quiera dar felicidad

Bm
Vine a confesarlo
                          E
Que no quiero verte
Bm
Sin mucho detalle
                        E
Yo vine a decirte

C#m                            *
Dime, dime, dime si te cuesta tu pureza
e|-----------------------------|
B|-----------------------------|
G|-----------------------------|
D|-----------------------------|
A|---7/9----9----9~------------|
E|----9------7-----------------|

C#m                            *
Dime, dime, dime si te cuesta tu pureza
e|----------------------------|
B|----------------------------|
G|----------------------------|
D|----------------------------|
A|-------------9---5----------|
E|---12---9----7---4----------|


Bm   E
e|--------------------------------|
B|--7--7--6--5--5--6--7-----------|
G|--9--9--8--7--7--8--9-----------|
D|--------------------------------|
A|--------------------------------|
E|--------------------------------|  (x3)

C#m                      *
Mccumbachero Mccumbachero
e|-------------------------------|
B|-------------------------------|
G|-------------------------------|
D|---------------9~--------------|
A|----9----9---------------------|
E|----9----7---------------------|

C#m                      *
Mccumbachero Mccumbachero
(esto se toca hasta que acaba la canción)
e|----9---7-------4-------12-9--7---9--7-----|
B|----9---9-------5-------------9---9--9-----|
G|-------------------------------------------|
D|-------------------------------------------|
A|-------------------------------------------|
E|-------------------------------------------|

*
e|--4---|
B|--5---|
G|--4---|
D|--6---|
A|--7---|
E|--4---|
Suggest correction
What's this?
You can suggest a correction to this tab. Community and Mods will review your correction and vote to approve or reject it.
comments
We did not receive enough feedback on this tab! Please rate:
print report bad tab
1 2 3 4 5
guest
You may want to rate the tab now too:
select rating
Please do not post tabs as comments. Select "correction" instead!