Oops, an error
Loading. Please wait.

Love To Let You Down tab

version 2
version 2

Whole song

Interactive

699 views 1 this week
no commentswrite comment
1 2 3 4 5
2 more votes to show rating
add to favorites
×
Save as Personal and add changes to this tab that will be seen only by you. Learn more ›
×
You can save this tab as Personal to edit and correct it or add notes. All changes will be seen only by you. Learn more »
launch autoscroll
font size
0
reset
how to read this tab
guitar tuner
backing track
0:00
0:00
edit
Autoscroll
slow
fast
+/-
esc
set tempo
stop
Track 1
               E  E  E  E  E  E  E  E     E  E  E  E  E  E  E  E   
E||-------||---------------------------|--------------------------|
B||-------||---------------------------|--------------------------|
G||-------||*--------------------------|--------------------------|
D||-------||*-----------------------3--|--L--3--3--3--3--3--3--3--|
A||-------||---------------------------|--------------------------|
D||-------||---0--0--0--0--0--0--0-----|--------------------------|


  E  E  E  E  E  E  E  E     E  E  E  E  E  E  E  E     
--------------------------|---------------------------||
--------------------------|---------------------------||
--------------------------|--------------------------*||
--------------2--2--2--2--|--------------------------*||
--------------------------|--------------5------------||
--2--2--2--2--------------|--3--3--0--3-----3--0--3---||


   E  E  E  E  E  E  E  E     E  E  E  E  E  E  E  E   
---------------------------|--------------------------|
---------------------------|--------------------------|
*--------------------------|--------------------------|
*-----------------------3--|--L--3--3--3--3--3--3--3--|
---------------------------|--------------------------|
---0--0--0--0--0--0--0-----|--------------------------|


  E  E  E  E  E  E  E  E     E  E  E  E  E  E  E  E     
--------------------------|---------------------------||
--------------------------|---------------------------||
--------------------------|--------------------------*||
--------------2--2--2--2--|--------------------------*||
--------------------------|--------------5------------||
--2--2--2--2--------------|--3--3--0--3-----3--0--3---||


  E  E  E  E  E  E  E  E     Q    Q    E  E  E  E     E  E  E  E  E  E  E  E   
--------------------------|------------------------|--------------------------|
--------------------------|------------------------|--------------------------|
--------------------------|------------------------|--------------------------|
--------------------------|--0----0----3--3--3--3--|-----5-----5--5--5--5--5--|
--------------5-----------|--0----0----------------|--------------------------|
--3--3--0--3-----3--0--3--|--0----0----------------|--------------------------|


  Q    Q    E  E  E  E     E  E  E  E  E  E  E  E     Q    Q    E  E  E  E   
------------------------|--------------------------|------------------------|
------------------------|--------------------------|------------------------|
------------------------|--------------------------|------------------------|
--0----0----3--3--3--3--|-----5-----5--5--5--5--5--|--0----0----3--3--3--3--|
--0----0----------------|--------------------------|--0----0----------------|
--0----0----------------|--------------------------|--0----0----------------|


  E  E  E  E  E  E  E  E      Q     Q     E   Q    E   
--------------------------|---------------------------|
--------------------------|---------------------------|
--------------------------|---------------------------|
-----5-----5--5--5--5--5--|--10----10----10--10----3--|
--------------------------|--10----10----10--10----3--|
--------------------------|--10----10----10--10----3--|


  E  E  Q    E  E  E  E       Q    Q    E  E  E  E   
-------------------------||-------------------------|
-------------------------||-------------------------|
-------------------------||*------------------------|
--L--3--3----3--3--3--3--||*--0----0----3--3--3--3--|
--L--3--3----3--3--3--3--||---0----0----------------|
--L--3--3----3--3--3--3--||---0----0----------------|


  E  E  E  E  E  E  E  E   3x   Q     Q     E   Q    E   
---------------------------||---------------------------|
---------------------------||---------------------------|
--------------------------*||---------------------------|
-----5-----5--5--5--5--5--*||--10----10----10--10----3--|
---------------------------||--10----10----10--10----3--|
---------------------------||--10----10----10--10----3--|


  E  E  Q    E  E  E  E     H        H            E   E   E   Q    Q    E   
-------------------------|--------------------|----------------------------|
-------------------------|--------------------|----------------------------|
-------------------------|--------------------|----------------------------|
--L--3--3----3--3--3--3--|--0--------0--------|--10--10--10--10----3----3--|
--L--3--3----3--3--3--3--|--0--------0--------|--10--10--10--10----3----3--|
--L--3--3----3--3--3--3--|--0--------0--------|--10--10--10--10----3----3--|


  W                    E   E   E   Q    Q    E     H        H         
-------------------|----------------------------|--------------------|
-------------------|----------------------------|--------------------|
-------------------|----------------------------|--------------------|
--L----------------|--10--10--10--10----3----0--|--L--------0--------|
--L----------------|--10--10--10--10----3----0--|--L--------0--------|
--L----------------|--10--10--10--10----3----0--|--L--------0--------|


   E   E   E   Q    Q    E     W                    E   E   E   Q    Q    E   
----------------------------|-------------------|----------------------------|
----------------------------|-------------------|----------------------------|
----------------------------|-------------------|----------------------------|
--10--10--10--10----3----3--|--L----------------|--10--10--10--10----3----0--|
--10--10--10--10----3----3--|--L----------------|--10--10--10--10----3----0--|
--10--10--10--10----3----3--|--L----------------|--10--10--10--10----3----0--|


  H        H            E   E   E   Q    Q    E     W                 
--------------------|----------------------------|-------------------|
--------------------|----------------------------|-------------------|
--------------------|----------------------------|-------------------|
--L--------0--------|--10--10--10--10----3----3--|--L----------------|
--L--------0--------|--10--10--10--10----3----3--|--L----------------|
--L--------0--------|--10--10--10--10----3----3--|--L----------------|


   E   E   E   Q    Q    E     H        H            E   E   E   Q    Q    E   
----------------------------|--------------------|----------------------------|
----------------------------|--------------------|----------------------------|
----------------------------|--------------------|----------------------------|
--10--10--10--10----3----0--|--L--------0--------|--10--10--10--10----3----3--|
--10--10--10--10----3----0--|--L--------0--------|--10--10--10--10----3----3--|
--10--10--10--10----3----0--|--L--------0--------|--10--10--10--10----3----3--|


  W                    E   E   E   Q    Q.          E  E  E  E  E  E  E  E   
-------------------|---------------------------||---------------------------|
-------------------|---------------------------||---------------------------|
-------------------|---------------------------||*--------------------------|
--L----------------|--10--10--10--10----3------||*-----------------------3--|
--L----------------|--10--10--10--10----3------||---------------------------|
--L----------------|--10--10--10--10----3------||---0--0--0--0--0--0--0-----|


  E  E  E  E  E  E  E  E     E  E  E  E  E  E  E  E   
--------------------------|--------------------------|
--------------------------|--------------------------|
--------------------------|--------------------------|
--L--3--3--3--3--3--3--3--|--------------2--2--2--2--|
--------------------------|--------------------------|
--------------------------|--2--2--2--2--------------|


  E  E  E  E  E  E  E  E       E  E  E  E  E  E  E  E   
---------------------------||--------------------------|
---------------------------||--------------------------|
--------------------------*||--------------------------|
--------------------------*||--------------------------|
--------------5------------||--------------5-----------|
--3--3--0--3-----3--0--3---||--3--3--0--3-----3--0--3--|


  Q    Q    E  E  E  E     E  E  E  E  E  E  E  E     Q    Q    E  E  E  E   
------------------------|--------------------------|------------------------|
------------------------|--------------------------|------------------------|
------------------------|--------------------------|------------------------|
--0----0----3--3--3--3--|-----5-----5--5--5--5--5--|--0----0----3--3--3--3--|
--0----0----------------|--------------------------|--0----0----------------|
--0----0----------------|--------------------------|--0----0----------------|


  E  E  E  E  E  E  E  E     Q    Q    E  E  E  E     E  E  E  E  E  E  E  E   
--------------------------|------------------------|--------------------------|
--------------------------|------------------------|--------------------------|
--------------------------|------------------------|--------------------------|
-----5-----5--5--5--5--5--|--0----0----3--3--3--3--|-----5-----5--5--5--5--5--|
--------------------------|--0----0----------------|--------------------------|
--------------------------|--0----0----------------|--------------------------|


   Q     Q     E   Q    E     E  E  Q    E  E  E  E   
---------------------------|-------------------------|
---------------------------|-------------------------|
---------------------------|-------------------------|
--10----10----10--10----3--|--L--3--3----3--3--3--3--|
--10----10----10--10----3--|--L--3--3----3--3--3--3--|
--10----10----10--10----3--|--L--3--3----3--3--3--3--|


    Q    Q    E  E  E  E     E  E  E  E  E  E  E  E   3x
|-------------------------|---------------------------||
|-------------------------|---------------------------||
|*------------------------|--------------------------*||
|*--0----0----3--3--3--3--|-----5-----5--5--5--5--5--*||
|---0----0----------------|---------------------------||
|---0----0----------------|---------------------------||


   Q     Q     E   Q    E     E  E  Q    E  E  E  E     H        H         
---------------------------|-------------------------|--------------------|
---------------------------|-------------------------|--------------------|
---------------------------|-------------------------|--------------------|
--10----10----10--10----3--|--L--3--3----3--3--3--3--|--0--------0--------|
--10----10----10--10----3--|--L--3--3----3--3--3--3--|--0--------0--------|
--10----10----10--10----3--|--L--3--3----3--3--3--3--|--0--------0--------|


   E   E   E   Q    Q    E     W                    E   E   E   Q    Q    E   
----------------------------|-------------------|----------------------------|
----------------------------|-------------------|----------------------------|
----------------------------|-------------------|----------------------------|
--10--10--10--10----3----3--|--L----------------|--10--10--10--10----3----0--|
--10--10--10--10----3----3--|--L----------------|--10--10--10--10----3----0--|
--10--10--10--10----3----3--|--L----------------|--10--10--10--10----3----0--|


  H        H            E   E   E   Q    Q    E     W                 
--------------------|----------------------------|-------------------|
--------------------|----------------------------|-------------------|
--------------------|----------------------------|-------------------|
--L--------0--------|--10--10--10--10----3----3--|--L----------------|
--L--------0--------|--10--10--10--10----3----3--|--L----------------|
--L--------0--------|--10--10--10--10----3----3--|--L----------------|


   E   E   E   Q    Q    E     H        H            E   E   E   Q    Q    E   
----------------------------|--------------------|----------------------------|
----------------------------|--------------------|----------------------------|
----------------------------|--------------------|----------------------------|
--10--10--10--10----3----0--|--L--------0--------|--10--10--10--10----3----3--|
--10--10--10--10----3----0--|--L--------0--------|--10--10--10--10----3----3--|
--10--10--10--10----3----0--|--L--------0--------|--10--10--10--10----3----3--|


  W                    E   E   E   Q    Q    E     H        H         
-------------------|----------------------------|--------------------|
-------------------|----------------------------|--------------------|
-------------------|----------------------------|--------------------|
--L----------------|--10--10--10--10----3----0--|--L--------0--------|
--L----------------|--10--10--10--10----3----0--|--L--------0--------|
--L----------------|--10--10--10--10----3----0--|--L--------0--------|


   E   E   E   Q    Q    E     W                    E   E   E   Q     Q    E   
----------------------------|-------------------|-----------------------------|
----------------------------|-------------------|-----------------------------|
----------------------------|-------------------|-----------------------------|
--10--10--10--10----3----3--|--L----------------|--10--10--10--10----10----3--|
--10--10--10--10----3----3--|--L----------------|--10--10--10--10----10----3--|
--10--10--10--10----3----3--|--L----------------|--10--10--10--10----10----3--|


  W                   W                   W                   W                 
-------------------|-------------------|-------------------|-------------------|
-------------------|-------------------|-------------------|-------------------|
-------------------|-------------------|-------------------|-------------------|
--L----------------|--L----------------|--0----------------|--L----------------|
--L----------------|--L----------------|--0----------------|--L----------------|
--L----------------|--L----------------|--0----------------|--L----------------|


   W                   W                   W                 
--------------------|-------------------|-------------------|
--------------------|-------------------|-------------------|
--------------------|-------------------|-------------------|
--10----------------|--L----------------|--7----------------|
--10----------------|--L----------------|--7----------------|
--10----------------|--L----------------|--7----------------|


  W                   W                   W                   W                 
-------------------|-------------------|-------------------|-------------------|
-------------------|-------------------|-------------------|-------------------|
-------------------|-------------------|-------------------|-------------------|
--L----------------|--3----------------|--L----------------|--0----------------|
--L----------------|--3----------------|--L----------------|--0----------------|
--L----------------|--3----------------|--L----------------|--0----------------|


  W                    W                   W                 
-------------------|--------------------|-------------------|
-------------------|--------------------|-------------------|
-------------------|--------------------|-------------------|
--L----------------|--10----------------|--L----------------|
--L----------------|--10----------------|--L----------------|
--L----------------|--10----------------|--L----------------|


  W                   W                                                         
-------------------|-------------------|-------------------|-------------------|
-------------------|-------------------|-------------------|-------------------|
-------------------|-------------------|-------------------|-------------------|
--7----------------|--L----------------|-------------------|-------------------|
--7----------------|--L----------------|-------------------|-------------------|
--7----------------|--L----------------|-------------------|-------------------|


                                            E  E  E  E  E  E  E  E   
-------------------|-------------------||---------------------------|
-------------------|-------------------||---------------------------|
-------------------|-------------------||*--------------------------|
-------------------|-------------------||*--------------------------|
-------------------|-------------------||---2--2--2-----2--2--2-----|
-------------------|-------------------||---2--2--2-----2--2--2-----|


  E  E  E  E  E  E  E  E     E  E  E  E  E  E  E  E   
--------------------------|--------------------------|
--------------------------|--------------------------|
--------------------------|--------------------------|
--------------5-----------|--------------------------|
--2--3--3--3--3--3--0--3--|--2--2--2-----2--2--2-----|
--2--3--3--3-----3--0--3--|--2--2--2-----2--2--2-----|


  E  E  E  E  E  E  E  E     E  E  E  E  E  E  E  E   
--------------------------|--------------------------|
--------------------------|--------------------------|
--------------------------|--------------------------|
--------------5-----------|--------------------------|
--2--3--3--3--3--3--0--3--|--2--2--2-----2--2--2-----|
--2--3--3--3-----3--0--3--|--2--2--2-----2--2--2-----|


  E  E  E  E  E  E  E  E     E  E  E  E  E  E  E  E   
--------------------------|--------------------------|
--------------------------|--------------------------|
--------------------------|--------------------------|
--------------5-----------|--------------------------|
--2--3--3--3--3--3--0--3--|--2--2--2-----2--2--2-----|
--2--3--3--3-----3--0--3--|--2--2--2-----2--2--2-----|


  E  E  E  E  E  E  E  E       E  E  E  E  E  E  E  E         
---------------------------||--------------------------|-----|
---------------------------||--------------------------|-----|
--------------------------*||--------------------------|-----|
--------------------------*||--------------------------|-----|
--2--2--2-----2--2--2------||--2--2--2-----2--2--2-----|-----|
--2--2--2-----2--2--2------||--2--2--2-----2--2--2-----|-----|


  E  E  E  E  E  E  E  E           E  E  E  E  E  E  E  E         
--------------------------|-----|--------------------------|-----|
--------------------------|-----|--------------------------|-----|
--------------------------|-----|--------------------------|-----|
--------------------------|-----|--------------------------|-----|
--2--2--2-----2--2--2-----|-----|--2--2--2-----2--2--2-----|-----|
--2--2--2-----2--2--2-----|-----|--2--2--2-----2--2--2-----|-----|


   Q     Q     E   Q    E     E  E  Q    E  E  E  E               
---------------------------|-------------------------|-----|-----|
---------------------------|-------------------------|-----|-----|
---------------------------|-------------------------|-----|-----|
--10----10----10--10----3--|--L--3--3----3--3--3--3--|-----|-----|
--10----10----10--10----3--|--L--3--3----3--3--3--3--|-----|-----|
--10----10----10--10----3--|--L--3--3----3--3--3--3--|-----|-----|


  H        H            E   E   E   Q    Q    E     W                 
--------------------|----------------------------|-------------------|
--------------------|----------------------------|-------------------|
--------------------|----------------------------|-------------------|
--0--------0--------|--10--10--10--10----3----3--|--L----------------|
--0--------0--------|--10--10--10--10----3----3--|--L----------------|
--0--------0--------|--10--10--10--10----3----3--|--L----------------|


   E   E   E   Q    Q    E     H        H            E   E   E   Q    Q    E   
----------------------------|--------------------|----------------------------|
----------------------------|--------------------|----------------------------|
----------------------------|--------------------|----------------------------|
--10--10--10--10----3----0--|--L--------0--------|--10--10--10--10----3----3--|
--10--10--10--10----3----0--|--L--------0--------|--10--10--10--10----3----3--|
--10--10--10--10----3----0--|--L--------0--------|--10--10--10--10----3----3--|


  W                    E   E   E   Q    Q    E     H        H         
-------------------|----------------------------|--------------------|
-------------------|----------------------------|--------------------|
-------------------|----------------------------|--------------------|
--L----------------|--10--10--10--10----3----0--|--L--------0--------|
--L----------------|--10--10--10--10----3----0--|--L--------0--------|
--L----------------|--10--10--10--10----3----0--|--L--------0--------|


   E   E   E   Q    Q    E     W                    E   E   E   Q    Q    E   
----------------------------|-------------------|----------------------------|
----------------------------|-------------------|----------------------------|
----------------------------|-------------------|----------------------------|
--10--10--10--10----3----3--|--L----------------|--10--10--10--10----3----0--|
--10--10--10--10----3----3--|--L----------------|--10--10--10--10----3----0--|
--10--10--10--10----3----3--|--L----------------|--10--10--10--10----3----0--|


  H        H            E   E   E   Q    Q    E     W                 
--------------------|----------------------------|-------------------|
--------------------|----------------------------|-------------------|
--------------------|----------------------------|-------------------|
--L--------0--------|--10--10--10--10----3----3--|--L----------------|
--L--------0--------|--10--10--10--10----3----3--|--L----------------|
--L--------0--------|--10--10--10--10----3----3--|--L----------------|


   E   E   E   Q    Q    E     H        H            E   E   E   Q    Q    E   
----------------------------|--------------------|----------------------------|
----------------------------|--------------------|----------------------------|
----------------------------|--------------------|----------------------------|
--10--10--10--10----3----0--|--L--------0--------|--10--10--10--10----8----8--|
--10--10--10--10----3----0--|--L--------0--------|--10--10--10--10----8----8--|
--10--10--10--10----3----0--|--L--------0--------|--10--10--10--10----8----8--|


  W                    E   E   E   Q    Q    E     H        H         
-------------------|----------------------------|--------------------|
-------------------|----------------------------|--------------------|
-------------------|----------------------------|--------------------|
--L----------------|--10--10--10--10----3----0--|--L--------0--------|
--L----------------|--10--10--10--10----3----0--|--L--------0--------|
--L----------------|--10--10--10--10----3----0--|--L--------0--------|


   E   E   E   Q    Q    E     W                   W                 
----------------------------|-------------------|-------------------|
----------------------------|-------------------|-------------------|
----------------------------|-------------------|-------------------|
--10--10--10--10----8----8--|--L----------------|--L----------------|
--10--10--10--10----8----8--|--L----------------|--L----------------|
--10--10--10--10----8----8--|--L----------------|--L----------------|


  W                   W                  
-------------------|-------------------||
-------------------|-------------------||
-------------------|-------------------||
--L----------------|--L----------------||
--L----------------|--L----------------||
--L----------------|--L----------------||




Duration Legend
---------------
W - whole
H - half
Q - quarter
E - 8th
S - 16th
T - 32nd
X - 64th
. - note dotted
|-n-|  - n-tuplets


Tablature Legend
----------------
L - tied note
x - dead note
g - grace note
(n) - ghost note
> - accentuded note
NH - natural harmonic
AH - artificial harmonic
TH - tapped harmonic
SH - semi harmonic
PH - pitch harmonic
h - hammer on
p - pull off
b - bend
br - bendRelease
pb - preBend
pbr - preBendRelease
brb - bendReleaseBend
\n/ - tremolo bar dip
\n - tremolo bar dive
-/n - tremolo bar Release up
/n\ - tremolo bar inverted dip
/n - tremolo bar return
-\n - tremolo bar Release down
S - shift slide
s - legato slide
/ -  slide into from below or out of upwards
\ -  slide into from above or out of downwards
~ - vibrato
W - wide vibrato
tr - trill
TP - tremolo picking
T - tapping
S - slap
P - pop
< - fade in
^ - brush up
v - brush down

            
            
Suggest correction
Creating personal tab
Creating personal tab
You can edit any tab online and save it as your Personal.

You can edit, replace or remove any tab part or add personal notes – all changes will be seen only by you.

Personal tabs can be accessed anytime from any device, even offline.
Learn more »
Give kudos to tab author, rate the tab!
1 2 3 4 5
comments
print report bad tab
guest
You may want to rate the tab now too:
select rating
Wanna post a correction for this tab? Suggest correction