Oops, an error
Loading. Please wait.

All In All Tab

version 1
version 1

Intro

Whole song

13,500 views 1 this week
no commentswrite comment
1 2 3 4 5
x 7
add to favorites
launch autoscroll
font size
0
reset
how to read this tab
guitar tuner
Autoscroll
slow
fast
+/-
esc
set tempo
stop
Help us to improve Ultimate-Guitar.com Take our survey!
×
Author
Difficulty
Capo
intermediate
2nd fret
Capo II

e|-----------------------------------------|
G|-----------------------------------------|
B|--7-7--7--7----6--6----11-11-11-11-------|
D|--0-0--0--0----0--0----0--0--0--0--------|
A|--x-x--x--x----x--x----x--x--x--x--------|
E|--7-7--7--7----5--5----10-10-10-10-------|


e|-----------------------------------------|
G|-----------------------------------------|
B|--7-7--7--7----6--6---2-2--4-4-----------|
D|--0-0--0--0----0--0---0-0--0-0-----------|
A|--x-x--x--x----x--x---x-x--x-x-----------|
E|--7-7--7--7----5--5---2-2--3-3-----------|

Suggest correction
comments
print report bad tab
guest
You may want to rate the tab now too:
select rating
Wanna post a correction for this tab? Suggest correction