Oops, an error
Loading. Please wait.

All In tab

26,960 views 6 this week
2 commentsread comments
1 2 3 4 5
x 3
add to favorites
×
Save as Personal and add changes to this tab that will be seen only by you. Learn more ›
×
You can save this tab as Personal to edit and correct it or add notes. All changes will be seen only by you. Learn more »
launch autoscroll
font size
0
reset
how to read this tab
guitar tuner
edit
Autoscroll
slow
fast
+/-
esc
set tempo
stop
-------------------------------------------------------------------------------
                             ALL IN - Lifehouse
-------------------------------------------------------------------------------
amazing new song off the new Lifehouse album "Smoke & Mirrors"....be sure to give it a listen!

Tuning: 1/2 step down 

Intro (repeat twice)-listen to the song to get the strumming pattern
e|---------------------------------------------------------------------------|
B|---------------------------------------------------------------------------|
G|---4------11------6------7-----6-------------------------------------------|
D|---5------12------7------9-----7-------------------------------------------|
A|---5------12------7------9-----7-------------------------------------------|
E|---------------------------------------------------------------------------|

Verse (repeat twice)
e|---------------------------------------------------------------------------|
B|---------------------------------------------------------------------------|
G|---11------4------7------6------4------------------------------------------|
D|---12------5------9------7------5------------------------------------------|
A|---12------5------9------7------5------------------------------------------|
E|---------------------------------------------------------------------------|

Pre-chorus
e|---------------------------------------------------------------------------|
B|---------------------------------------------------------------------------|
G|----7-----6-----4----------------------------------------------------------|
D|----9-----7-----5----------------------------------------------------------|
A|----9-----7-----5----------------------------------------------------------|
E|---------------------------------------------------------------------------|

Chorus                      
e|----2--------3------------------------3--------------------------------------|
B|----3--------3------------------------3--------------------------------------|
G|----2--------0--------4-------2-------0--------------------------------------|
D|----0--------0--------4-------2-------0--------------------------------------|
A|-------------2--------2-------4-------2--------------------------------------|
E|-------------3------------------------3--------------------------------------|

Verse 2 (same)

Chorus 

Bridge (same chords as the verse)

The part right before the last chorus is a bit different...
e|----2--------3--------------------0------------------------------------------|
B|----3--------3--------------------0------------------------------------------|
G|----2--------0-------4------2-----0------------------------------------------|
D|----0--------0-------4------2-----2------------------------------------------|
A|-------------2-------2------4-----2------------------------------------------|
E|-------------3--------------------0------------------------------------------|

Chorus
End the song on Em
Suggest correction
Creating personal tab
Creating personal tab
You can edit any tab online and save it as your Personal.

You can edit, replace or remove any tab part or add personal notes – all changes will be seen only by you.

Personal tabs can be accessed anytime from any device, even offline.
Learn more »
Give kudos to tab author, rate the tab!
1 2 3 4 5
comments
print report bad tab
2 comments total.
0 reply
jetblack07 10 Jan 29, 2011 09:55 AM

Good job on the tab but the intro is played differently and a few parts in the chorus are wrong.
Hope this helps.

Heres the intro:

e|-------------------
B|-------------------
G|--4--11--6--7--6---
D|-------------------
A|-------------------
E|--3--10--5--7--5---

Chorus

e|----2----3------------3-----
B|----3----3-----3---2--3-----
G|----2----0-----4---2--------
D|----0----0-----4---2--------
A|---------2-----2------2-----
E|---------3------------3-----

0 reply
IMgannaOWN 12 Jul 21, 2012 03:57 PM

i agree. fix please

guest
You may want to rate the tab now too:
select rating
Wanna post a correction for this tab? Suggest correction