Oops, an error
Loading. Please wait.

Between The Raindrops Chords

version 1
version 1

Acoustic

Whole song

8,329 views 33 this week
3 commentsread comments
1 2 3 4 5
excellent!
x 5
add to favorites
launch autoscroll
font size
0
reset
transpose
0
reset
simplify chords
display chords
guitar tuner
Tab Pro tools
  • play this tab
  • loop segment
  • change instrument
  • show fretboard
  • metronome
×
Best way to learn
"Between The Raindrops"
Autoscroll
slow
fast
+/-
esc
set tempo
stop
Contributor
Difficulty
Tuning
intermediate
D# G# C# F# A# D#
tab by @acoustic_girl

Hello world, I tabbed this based on acoustic performances by the band. I think 
it's pretty close to how Jason actually plays it, you can YT the videos and judge 
for yourselves :D 
Rate and comment, cheers!

Tuning: Half-Step Down

Chords:
C7M     :x32000
C/G     :332010
Em      :022000
G       :3x0003
D/F#    :2x0232
Gsus4   :3x0013
Cadd9   :x32033
Em7     :022033
G5      :3x0033
Dsus4/F#:2x0233
Am      :x02210


Intro:

eb|----------------------------------------------------------|
Bb|----------------------------------------------------------|
Gb|----------------------------------------------------------|
Db|----22-2-2------55-5-5-------99--9--9-------44-4-4--------|(x2)
Ab|--3---3-3-3---7---7-7-7---10---10-10-10---5---5-5-5-------|
Eb|----------------------------------------------------------|   
   
Verse :

C7M  Em
Look around
G                          D/F# 
There's no one but you and me
C7M            Em
Right here and now
G                       D/F#
The way it was meant to be

(For the second part of the verse just play the intro)
There's a smile on my face
Knowing that together
Everything that's in our way
We're better than alright

Chorus:
Em                                 
Walking between the raindrops
C/G                   G        Gsus4  G  D/F#           
Riding the aftershock beside you
Em                   
Off into the sunset
C/G                        G       D/F#
Living like there's nothing left to lose

Chasing after gold mines
Crossing the fine lines we knew
Hold on and take a breath
I'll be here every step
Walking between the raindrops with you

(repeat intro)

Verse 2: (strum chords)

Cadd9    Em7
 Take me now
G5                 Dsus4/F#
The world's such a crazy place

When the walls come down
You'll know I'm here to stay
There's nothing I would change
Knowing that together everything that's in our way
We're better than alright

(Repeat Chorus)

Break: (repeat intro)

Bridge: 
C7M                   Em
There's a smile on my face
G             D/F#
Knowing that together 
     Am                  Em
Everything that's in our way
G                 D/F#
We're better than alright

(Repeat chorus as many times as necessary)
comments
print report bad tab
3 comments total.
-2 reply
charlesfhill wrote on January 19 2013, 10:41 am

Finger picking seems better if you play this

----------------------------------------|
------------------------0----0----------|
-----0--0----0--0-----0--0--------0--0--|
----5-5-----5-5------------------4-4----|
---3---3---7---7----10----10----5---5---|
----------------------------------------|

-2 reply
charlesfhill wrote on January 19 2013, 10:41 am

Finger picking seems better if you play this

----------------------------------------|
------------------------0----0----------|
-----0--0----0--0-----0--0--------0--0--|
----5-5-----5-5------------------4-4----|
---3---3---7---7----10----10----5---5---|
----------------------------------------|

0 reply
guitarmasteral wrote on April 5 2013, 12:58 am

Great job! The rests in the intro however should be after the 2nd note in the phrase I believe. So it would be more like this

|------------------------------------------------------------|
|------------------------------------------------------------|
|------------------------------------------------------------|
|-----2-2-2-2-----5-5-5-5------9-9--9--9------4-4-4-4--------|
|----3---3-3-3---7---7-7-7---10---10-10-10---5---5-5-5-------|
|------------------------------------------------------------|

I want to post or [tab]
guest
You may want to rate the tab now too:
select rating
Please do not post tabs as comments. Select "correction" instead!