Oops, an error
Loading. Please wait.

Disarray Tab

version 1
version 1

Whole song

4,354 views 3 this week
1 commentread comment
1 2 3 4 5
accurate
x 4
add to favorites
launch autoscroll
font size
0
reset
how to read this tab
guitar tuner
Tab Pro tools
  • play this tab
  • loop segment
  • change instrument
  • show fretboard
  • metronome
×
Best way to learn
"Disarray"
Autoscroll
slow
fast
+/-
esc
set tempo
stop
Contributor
Difficulty
Tuning
novice
D A D G B E
Lifehouse - Disarray                                       tabbed by: tuluks
--------------------

first song on their album "who we are"
i know this is not the way he plays it but just check it out.
enjoy.


"drop D tuning" <<----important



Intro/Verses:
------------


e|------------------------------------|------------------------------------|
B|------------------------------------|------------------------------------|
G|------------------------------------|------------------------------------|
D|------------------------------------|--6-6-6-6-6-6-6-6-6-6-6-6-6-6-6-6---|
A|---6-6-6-8-8-8-6-6-6-8-8-8-6-6-8-8--|--6-6-6-8-8-8-6-6-6-8-8-8-6-6-8-8---|
D|---4-4-4-4-4-4-4-4-4-4-4-4-4-4-4-4--|--6-6-6-6-6-6-6-6-6-6-6-6-6-6-6-6---|\
                                                                             \
                                                                              } (x3)
e|------------------------------------|------------------------------------| /
B|------------------------------------|------------------------------------|/
G|------------------------------------|------------------------------------|
D|---6-6-6-6-6-6-6-6-6-6-6-6-6-6-6-6--|--4-4-4-4-4-4-4-4-4-4-4-4-4-4-4-4---|
A|---6-6-6-8-8-8-6-6-6-8-8-8-6-6-8-8--|--6-6-6-8-8-8-6-6-6-8-8-8-6-6-8-8---|
D|---8-8-8-8-8-8-8-8-8-8-8-8-8-8-8-8--|--4-4-4-4-4-4-4-4-4-4-4-4-4-4-4-4---|


e|--------------------|
B|--------------------|
G|--------/11---------|
D|--------/11---------|
A|--------/9----------|
D|--------------------|
 (transition to chorus)



Chorus
------

            C#5                 B5             / - slide
e|------------------------------------------------|
B|------------------------------------------------|
G|-----------6-------------------8----------------|
D|-----------6------------------/9----------------|
A|-----------4------------------/9----------------|
D|------------------------------/9----------------|
1.someday im gonna...   ..wish i knew what i was..
2.    i woke up ... ...dont know where

            A#5           G#5            F#5
e|--------------------------------------------------------|
B|--------------------------------------------------------|
G|-----------6-------------5--------------3---------------|
D|-----------8-------------6--------------4---------------|
A|-----------8-------------6--------------4---------------|
D|-----------8-------------6--------------4---------------|
   looking for                          inside the disarray
  but its alright              i wouldnt have it any other way..



Bridge (after second chorus)
------

e|------------------------------------------------------6-----------|
B|-----------9--------------------11--------------------8-----------|
G|-----------8--------------------10--------------------7-----------|
D|-----------6--------------------8---------------------5-----------|
A|-----------6--------------------8---------------------5-----------|
D|-----------6--------------------8---------------------5-----------|
   this was any other day I'd pretend.. ..know where I stand



Solo (gtr2)
----

(do intro over solo)
                                                     *s - slide
e|------------------------------------------------------------|
B|-----9--s10---s13--s14-s13-s6------s9-s11---s13--s14--------|
G|------------------------------------------------------------|
D|------------------------------------------------------------|
A|------------------------------------------------------------|
D|------------------------------------------------------------|
                                                  someday im...

outro:
                ^          ^    -downstrum
e|-------------------------------------|
B|-------------------------------------|
G|--------------5----------3-----------|
D|--------------6----------4-----------|
A|--------------6----------4-----------|
D|--------------6----------4-----------|
 its alright


****************************************************************************

thats it.
this goes out to the B.O.B in usp! hehe.
kid©2007™
comments
print report bad tab
1 comment total.
0 reply
Yazawo wrote on April 5 2010, 10:26 pm

Perfect...thanks

I want to post or [tab]
guest
You may want to rate the tab now too:
select rating
Please do not post tabs as comments. Select "correction" instead!