Oops, an error
Loading. Please wait.

Disarray Tab

version 2
version 2

Whole song

2,441 views 1 this week
1 commentread comment
1 2 3 4 5
1 last vote to show rating
add to favorites
launch autoscroll
font size
0
reset
how to read this tab
guitar tuner
Autoscroll
slow
fast
+/-
esc
set tempo
stop
Help us to improve Ultimate-Guitar.com Take our survey!
×
Difficulty
Capo
novice
2nd fret
Lifehouse - Disarray
====================

Music and Lyrics by Lifehouse

Capo 2nd fret

e|-------------------------------------------------------------------|
b|-------------------------------------------------------------------|
g|-------------------------------------------------------------------|
D|-------------------------------------------------------------------|
A|--4-4-4-6-6-6-4-4-4-6-6-6-4-4-6-6-4-4-4-6-6-6-4-4-4-6-6-6-4-4-6-6--|
E|--0-0-0-0-0-0-0-0-0-0-0-0-0-0-0-0-2-2-2-2-2-2-2-2-2-2-2-2-2-2-2-2--|

e|-------------------------------------------------------------------|
b|-------------------------------------------------------------------|
g|-------------------------------------------------------------------|
D|--4-4-4-4-4-4-4-4-4-4-4-4-4-4-4-4----------------------------------|
A|--4-4-4-6-6-6-4-4-4-6-6-6-4-4-6-6-2-2-2-4-4-4-2-2-2-4-4-4-2-2-4-4--| 
E|--4-4-4-4-4-4-4-4-4-4-4-4-4-4-4-4-0-0-0-0-0-0-0-0-0-0-0-0-0-0-0-0--|


before Chorus starts play  E5(VII)


Chorus:  B5  A5  G#5  F#5-E5


Verse:
I've faced my demons
Wrestled these angels to the ground
And all that I could find
Was a thin line between
All the saints and villains
It was crossed in my own eyes

Chorus
Someday I'm gonna find it
Wish I knew what I was looking for
Inside the disarray (inside the disarray)
I woke up this morning
Don’t know where I’m going
But it’s alright
I wouldn't have it any other way

Verse:
I’m struggling between the facts and fiction
I’m alone
But I'm alive
Everyone around me is trying to make a statement, then there's me
I’m just trying to survive

Chorus:
Someday I'm gonna find it
Wish I knew what I was looking for
Inside the disarray (inside the disarray)
I woke up this morning
Don’t know where I’m going

           G#m      -F#
But it’s alright
           E
I wouldn't have it any other way
            F#
If this was any other day
     G#5                F#5 C#5 
I pretend to know where I   stand

             ! at this point play the part below
I Just don’t know (just don’t know)

e|-------------------------------------------------------------------|
b|-------------------------------------------------------------------|
g|-------------------------------------------------------------------|
D|-------------------------------------------------------------------|
A|--4-4-4-6-6-6-4-4-4-6-6-6-4-4-6-6-4-4-4-6-6-6-4-4-4-6-6-6-4-4-6-6--|
E|--0-0-0-0-0-0-0-0-0-0-0-0-0-0-0-0-2-2-2-2-2-2-2-2-2-2-2-2-2-2-2-2--|

e|----------------------------------|------------------------------------|
b|----------------------------------|-.----------------------------------|
g|----------------------------------|------------------------------------|
D|--4-4-4-4-4-4-4-4-4-4-4-4-4-4-4-4-|-.----------------------------------|
A|--4-4-4-6-6-6-4-4-4-6-6-6-4-4-6-6-|---4-4-4-6-6-6-4-4-4-6-6-6-4-4-6-6--| 
E|--4-4-4-4-4-4-4-4-4-4-4-4-4-4-4-4-|---0-0-0-0-0-0-0-0-0-0-0-0-0-0-0-0--|
                                    ! Solo starts here 
                                                                      2x
e|--------------------------------------------------------------------|
b|------------------------------------------------------------------.-|
g|--------------------------------------------------------------------|
D|----------------------------------4-4-4-4-4-4-4-4-4-4-4-4-4-4-4-4-.-|
A|--4-4-4-6-6-6-4-4-4-6-6-6-4-4-6-6-4-4-4-6-6-6-4-4-4-6-6-6-4-4-6-6---|
E|--2-2-2-2-2-2-2-2-2-2-2-2-2-2-2-2-4-4-4-4-4-4-4-4-4-4-4-4-4-4-4-4---|

Solo:
w/ slide
e|-------------------------------------------|--------------------------------------|
h|-------------------------------------------|--------------------------------------|
g|--8/11--13------------15-----16--15--8-----|--8/11--13-------------15-----16--18--|
D|-------------------------------------------|--------------------------------------|
A|-------------------------------------------|--------------------------------------|
E|-------------------------------------------|--------------------------------------|

I Just don’t know

Chorus:
Someday I'm gonna find it
Wish I knew what I was looking for
Inside the disarray (inside the disarray)
I woke up this morning
Don’t know where I’m going
But it’s alright
I wouldn't have it any other way
Someday I will find it
Wish I knew what I was looking for
Inside the disarray (inside the disarray)
I woke up this morning
Don’t know where I’m going
           G#5     --> quiet:  F#5  E5
But it’s alright 



Have fun!

Tabbed by Alexander Beckmann
Suggest correction
Give kudos to tab author, rate the tab!
1 2 3 4 5
comments
print report bad tab
1 comment total.
0 reply
ejm4 177 Mar 22, 2008 12:02 PM

for some reason they keep rejecting my tabs.
Try this.
Standard tuning
Intro/Verses:
------------

e|------------------------3-|
B|-----------------2------3-|
G|----------2------2------0-|
D|----------2-h4p--2-h4p--0-|x3
A|---2-h4p--2------0--------|
E|---3----------------------|

e|---3
B|---3
G|---0
D|---0
A|---2
E|---3


Chorus
e|----------------3-|
B|-------------2--3-|
G|-----7/-5/-4-2--0-|
D|-----7/-5/-4-2--0-|
A|-----5--3/-2-0--2-|
E|----------------3-|

guest
You may want to rate the tab now too:
select rating
Wanna post a correction for this tab? Suggest correction