Oops, an error
Loading. Please wait.

Disarray Tab

version 3
version 3

Whole song

4,304 views 1 this week
no commentswrite comment
1 2 3 4 5
excellent!
x 3
add to favorites
launch autoscroll
font size
0
reset
how to read this tab
guitar tuner
Tab Pro tools
  • play this tab
  • loop segment
  • change instrument
  • show fretboard
  • metronome
×
Best way to learn
"Disarray"
Autoscroll
slow
fast
+/-
esc
set tempo
stop
Tuning - Half a step down


Intro
eb|-------------------------------------------|
Bb|-------------------------------------------|
Gb|-------------------------------------------|
Db|--2-2-2-2h4-4-4-2-2-2-2h4-4-4-2-2-2-2h4-4--|
Ab|--2-2-2-2-2-2-2-2-2-2-2-2-2-2-2-2-2-2-2-2--|
Eb|--3-3-3-3-3-3-3-3-3-3-3-3-3-3-3-3-3-3-3-3--|

eb|-----------------------------------|
Bb|-----------------------------------|
Gb|--2-2-2-2-2-2-2-2-2-2-2-2-2-2-2-2--|
Db|--2-2-2h4-4-4-2-2-2h4-4-4-2-2h4-4--|
Ab|--0-0-0-0-0-0-0-0-0-0-0-0-0-0-0-0--|
Eb|-----------------------------------|

eb|-------------------------------------|
Bb|-------------------------------------|
Gb|--2-2-2-2-2-2-2-2-2-2-2-2-2-2-2-2-2--|
Db|--2-2-2h4-4-4-2-2-2h4-4-4-2-2-2h4-4--|
Ab|--2-2-2-2-2-2-2-2-2-2-2-2-2-2-2-2-2--|
Eb|-------------------------------------|

eb|--3-3-3-3-3-3-3-3-3-3-3-3-3-3-3-3--|
Bb|--3-3-3-3-3-3-3-3-3-3-3-3-3-3-3-3--|
Gb|--0-0-0-0-0-0-0-0-0-0-0-0-0-0-0-0--|
Db|--0-0-0-0-0-0-0-0-0-0-0-0-0-0-0-0--|
Ab|--x-x-x-x-x-x-x-x-x-x-x-x-x-x-x-x--|
Eb|--3-3-3-3-3-3-3-3-3-3-3-3-3-3-3-3--|


Verse 1 x2
eb|-------------------------------------------|
Bb|-------------------------------------------|
Gb|-------------------------------------------|
Db|--2-2-2-2h4-4-4-2-2-2-2h4-4-4-2-2-2-2h4-4--|
Ab|--2-2-2-2-2-2-2-2-2-2-2-2-2-2-2-2-2-2-2-2--|
Eb|--3-3-3-3-3-3-3-3-3-3-3-3-3-3-3-3-3-3-3-3--|

eb|-----------------------------------|
Bb|-----------------------------------|
Gb|--2-2-2-2-2-2-2-2-2-2-2-2-2-2-2-2--|
Db|--2-2-2h4-4-4-2-2-2h4-4-4-2-2h4-4--|
Ab|--0-0-0-0-0-0-0-0-0-0-0-0-0-0-0-0--|
Eb|-----------------------------------|

eb|-------------------------------------|
Bb|-------------------------------------|
Gb|--2-2-2-2-2-2-2-2-2-2-2-2-2-2-2-2-2--|
Db|--2-2-2h4-4-4-2-2-2h4-4-4-2-2-2h4-4--|
Ab|--2-2-2-2-2-2-2-2-2-2-2-2-2-2-2-2-2--|
Eb|-------------------------------------|

eb|--3-3-3-3-3-3-3-3-3-3-3-3-3-3-3-3--|
Bb|--3-3-3-3-3-3-3-3-3-3-3-3-3-3-3-3--|
Gb|--0-0-0-0-0-0-0-0-0-0-0-0-0-0-0-0--|
Db|--0-0-0-0-0-0-0-0-0-0-0-0-0-0-0-0--|
Ab|--x-x-x-x-x-x-x-x-x-x-x-x-x-x-x-x--|
Eb|--3-3-3-3-3-3-3-3-3-3-3-3-3-3-3-3--|

I faced my demons wrestling these angels to the ground
And all that I could find was a thin line between all the saints
And villains it was crossed
In my own mind


Chorus 1
             D5
Some day I'm gonna find it
       C5                      B5 A5  G
Wish I knew what I was looking for inside the disarray
       D5                         C5                        B5      A5
I woke up this morning don't know where I'm going but it's alright
            G
I wouldn't have it any other way


Verse 2 x2
eb|-------------------------------------------|
Bb|-------------------------------------------|
Gb|-------------------------------------------|
Db|--2-2-2-2h4-4-4-2-2-2-2h4-4-4-2-2-2-2h4-4--|
Ab|--2-2-2-2-2-2-2-2-2-2-2-2-2-2-2-2-2-2-2-2--|
Eb|--3-3-3-3-3-3-3-3-3-3-3-3-3-3-3-3-3-3-3-3--|

eb|-----------------------------------|
Bb|-----------------------------------|
Gb|--2-2-2-2-2-2-2-2-2-2-2-2-2-2-2-2--|
Db|--2-2-2h4-4-4-2-2-2h4-4-4-2-2h4-4--|
Ab|--0-0-0-0-0-0-0-0-0-0-0-0-0-0-0-0--|
Eb|-----------------------------------|

eb|-------------------------------------|
Bb|-------------------------------------|
Gb|--2-2-2-2-2-2-2-2-2-2-2-2-2-2-2-2-2--|
Db|--2-2-2h4-4-4-2-2-2h4-4-4-2-2-2h4-4--|
Ab|--2-2-2-2-2-2-2-2-2-2-2-2-2-2-2-2-2--|
Eb|-------------------------------------|

eb|--3-3-3-3-3-3-3-3-3-3-3-3-3-3-3-3--|
Bb|--3-3-3-3-3-3-3-3-3-3-3-3-3-3-3-3--|
Gb|--0-0-0-0-0-0-0-0-0-0-0-0-0-0-0-0--|
Db|--0-0-0-0-0-0-0-0-0-0-0-0-0-0-0-0--|
Ab|--x-x-x-x-x-x-x-x-x-x-x-x-x-x-x-x--|
Eb|--3-3-3-3-3-3-3-3-3-3-3-3-3-3-3-3--|

Struggling between the facts and fiction I'm alone
But I'm alive
Everyone around me is trying to make a statement
Then there's me
I'm just trying to survive


Chorus 2
             D5
Some day I'm gonna find it
       C5                      B5 A5  G
Wish I knew what I was looking for inside the disarray
       D5                         C5                        B5      A5
I woke up this morning don't know where I'm going but it's alright
            G
I wouldn't have it any other way


Bridge
eb|-----------------------------|
Bb|-----------------------------|
Gb|---------------2--2--2--2----|
Db|---------------2--2--2--2----|
Ab|---------------0--0--0--0----|
Eb|-----------------------------|
     If this was any other day
     Bm             Aadd4   Esus4/A
I'd pretend to know where I stand

I just don't know


Interlude/Solo
eb|-------------------------------------------|
Bb|-------------------------------------------|
Gb|-------------------------------------------|
Db|--2-2-2-2h4-4-4-2-2-2-2h4-4-4-2-2-2-2h4-4--|
Ab|--2-2-2-2-2-2-2-2-2-2-2-2-2-2-2-2-2-2-2-2--|
Eb|--3-3-3-3-3-3-3-3-3-3-3-3-3-3-3-3-3-3-3-3--|

eb|-----------------------------------|
Bb|-----------------------------------|
Gb|--2-2-2-2-2-2-2-2-2-2-2-2-2-2-2-2--|
Db|--2-2-2h4-4-4-2-2-2h4-4-4-2-2h4-4--|
Ab|--0-0-0-0-0-0-0-0-0-0-0-0-0-0-0-0--|
Eb|-----------------------------------|

eb|-------------------------------------|
Bb|-------------------------------------|
Gb|--2-2-2-2-2-2-2-2-2-2-2-2-2-2-2-2-2--|
Db|--2-2-2h4-4-4-2-2-2h4-4-4-2-2-2h4-4--|
Ab|--2-2-2-2-2-2-2-2-2-2-2-2-2-2-2-2-2--|
Eb|-------------------------------------|

eb|-------------------------------------------|
Bb|-------------------------------------------|
Gb|-------------------------------------------|
Db|--2-2-2-2h4-4-4-2-2-2-2h4-4-4-2-2-2-2h4-4--|
Ab|--2-2-2-2-2-2-2-2-2-2-2-2-2-2-2-2-2-2-2-2--|
Eb|--3-3-3-3-3-3-3-3-3-3-3-3-3-3-3-3-3-3-3-3--|

eb|-----------------------------------|
Bb|-----------------------------------|
Gb|--2-2-2-2-2-2-2-2-2-2-2-2-2-2-2-2--|
Db|--2-2-2h4-4-4-2-2-2h4-4-4-2-2h4-4--|
Ab|--0-0-0-0-0-0-0-0-0-0-0-0-0-0-0-0--|
Eb|-----------------------------------|

eb|-------------------------------------|
Bb|-------------------------------------|
Gb|--2-2-2-2-2-2-2-2-2-2-2-2-2-2-2-2-2--|
Db|--2-2-2h4-4-4-2-2-2h4-4-4-2-2-2h4-4--|
Ab|--2-2-2-2-2-2-2-2-2-2-2-2-2-2-2-2-2--|
Eb|-------------------------------------|

eb|--3-3-3-3-3-3-3-3-3-3-3-3-3-3-3-3--|
Bb|--3-3-3-3-3-3-3-3-3-3-3-3-3-3-3-3--|
Gb|--0-0-0-0-0-0-0-0-0-0-0-0-0-0-0-0--|
Db|--0-0-0-0-0-0-0-0-0-0-0-0-0-0-0-0--|
Ab|--x-x-x-x-x-x-x-x-x-x-x-x-x-x-x-x--|
Eb|--3-3-3-3-3-3-3-3-3-3-3-3-3-3-3-3--|


Chorus 3
             D5
Some day I'm gonna find it
       C5                      B5 A5  G
Wish I knew what I was looking for inside the disarray
       D5                         C5                        B5      A5
I woke up this morning don't know where I'm going but it's alright
            G
I wouldn't have it any other way
         D5
Some day I will find it
       C5                      B5 A5  G
Wish I knew what I was looking for inside the disarray
       D5                         C5                        B5      A  G*
I woke up this morning don't know where I'm going but it's alright


Chords used
D5 - x577xx
C5 - x355xx
B5 - x244xx
A5 - x022xx
G - 3x0033
Bm - 7x07xx
Aadd4 - 5x06xx
Esus4/A - x024xx
A - x0222x
G* - 3x000x
comments
We did not receive enough feedback on this tab! Please rate:
print report bad tab
1 2 3 4 5
I want to post or [tab]
guest
You may want to rate the tab now too:
select rating
Please do not post tabs as comments. Select "correction" instead!