Oops, an error
Loading. Please wait.

Everything Bass Tab

version 1
version 1

Whole song

Interactive

10,296 views 3 this week
4 commentsread comments
1 2 3 4 5
accurate
x 4
add to favorites
launch autoscroll
font size
0
reset
guitar tuner
Tab Pro tools
  • play this tab
  • loop segment
  • change instrument
  • show fretboard
  • metronome
×
Best way to learn
"Everything"
Autoscroll
slow
fast
+/-
esc
set tempo
stop
Song:  	Everything
Artist: Lifehouse
Tabbed: Don Fisher (dwfisher13@collegeclub.com)
Note: 	Get out your digital tunner..this puppy is
      	tunned down half a step!!!

Versus
E------------------------------
A---5--0--1-1-----5--0--1-1----
D------------------------------
G------------------------------
Note: Many variations to the above

Chorus
E-1----------------------------
A---0--1-1-----5--0--1-1-------
D------------------------------
G------------------------------

Interlude
E---------------------------------
A---5-5-5-5-5-5-5-5-5/1-1-1-1-1-0-
D---------------------------------
G---------------------------------

E-1-1-1-1-1-1-1-0-----------------
A-----------------3-3-3-3-3-3-3-3-
D---------------------------------
G---------------------------------
Repeat twice

Return to chorus riff
and end song with this!

Simple as tying a shoe!  

Shouts out to Mel for introducing me to Lifehouse! 
comments
print report bad tab
4 comments total. Showing first comments.
0 reply
Phoenix216 wrote on December 29 2001, 12:00 am

hey y'all, i played this to the music and the verse/intro didn't sound quite right... it sounds better like this:

G----------
D----------
A---4------
E-----4-5-5

0 reply
mhz2010 wrote on March 19 2002, 12:00 am

The song can also be played (in standard tuning on bass)
A: ---------67----62
E: 0--45-0-----0----

0 reply
soadfreek wrote on June 12 2002, 12:00 am

hehe, if you cant tune down a half step, then....youre a loser..well you arent but learn how to tune.

I want to post or [tab]
guest
You may want to rate the tab now too:
select rating
Please do not post tabs as comments. Select "correction" instead!