Oops, an error
Loading. Please wait.

Everything Tab

version 1
version 1
217,489 views 75 this week
14 commentsread comments
1 2 3 4 5
x 29
add to favorites
launch autoscroll
font size
0
reset
how to read this tab
guitar tuner
Autoscroll
slow
fast
+/-
esc
set tempo
stop
Help us to improve Ultimate-Guitar.com Take our survey!
×
[Intro]

e|---------------------------------------------------------------------------|
B|--------5---------------5-------------5---------------5--------------------|
G|------6---6----------4----4---------6---6---------4-----4------------------|
D|----6-------6------6---6----6-----6-------6-4---6---6-----6----------------| x2
A|--4------------6-7--------------4-------------7----------------------------|
E|---------------------------------------------------------------------------|


[Verse]

e|---------------------------------------------------------------------------|
B|--------5----------------5-------------------------------------------------|
G|------6---6----6-----6-----6---6-------------------------------------------| x8
D|----6--------------6---6-----6---------------------------------------------|
A|--4------------------------------------------------------------------------|
E|-------------4---5---------------------------------------------------------|


[Interlude]

e|---------------------------------------------------------------------------|
B|--------5---------------5-------------5---------------5--------------------|
G|------6---6----------4----4---------6---6---------4-----4------------------|
D|----6-------6------6---6----6-----6-------6-4---6---6-----6----------------|  
A|--4------------6-7--------------4-------------7----------------------------|
E|---------------------------------------------------------------------------|


[Verse]

e|---------------------------------------------------------------------------|
B|--------5----------------5-------------------------------------------------|
G|------6---6----6-----6-----6---6-------------------------------------------| x8
D|----6--------------6---6-----6---------------------------------------------|
A|--4------------------------------------------------------------------------|
E|-------------4---5---------------------------------------------------------|


[Chorus]

chorus can be strumming using standard chords

e|---------------------------------------------------------------------------|
B|--------0--------------------0---------------------------------------------|
G|------1---1----4---------2-----2---2---------------------------------------| 
D|----2------------------2---2-----2-----------------------------------------|
A|-------------2-----0-------------------------------------------------------|
E|--0------------------------------------------------------------------------|
    E          B     A2                                                         x2
e|---------------------------------------------------------------------------|
B|--------5-------------------0----------------------------------------------|
G|------6-------4---------2-----2---2----------------------------------------|
D|----6-----------------2---2-----2------------------------------------------|
A|--4---------2------0-------------------------------------------------------|
E|---------------------------------------------------------------------------|
    C#m       B      A2


[Interlude]

e|---------------------------------------------------------------------------|
B|--------5---------------5-------------5---------------5--------------------|
G|------6---6----------4----4---------6---6---------4-----4------------------|
D|----6-------6------6---6----6-----6-------6-4---6---6-----6----------------|  
A|--4------------6-7--------------4-------------7----------------------------|
E|---------------------------------------------------------------------------|


[Verse]

e|---------------------------------------------------------------------------|
B|--------5----------------5-------------------------------------------------|
G|------6---6----6-----6-----6---6-------------------------------------------| x8
D|----6--------------6---6-----6---------------------------------------------|
A|--4------------------------------------------------------------------------|
E|-------------4---5---------------------------------------------------------|


[Chorus]

e|---------------------------------------------------------------------------|
B|--------0--------------------0---------------------------------------------|
G|------1---1----4---------2-----2---2---------------------------------------| 
D|----2------------------2---2-----2-----------------------------------------|
A|-------------2-----0-------------------------------------------------------|
E|--0------------------------------------------------------------------------|
    E          B     A2                                                         x2
e|---------------------------------------------------------------------------|
B|--------5-------------------0----------------------------------------------|
G|------6-------4---------2-----2---2----------------------------------------|
D|----6-----------------2---2-----2------------------------------------------|
A|--4---------2------0-------------------------------------------------------|
E|---------------------------------------------------------------------------|
    C#m       B      A2


[Bridge]

e|--44444----00000----00000----22222-----------------------------------------|
B|--55555----00000----00000----22222-----------------------------------------|
G|--66666----22222----11111----44444-----------------------------------------|
D|--66666----22222----22222----44444-----------------------------------------| x4
A|--44444----00000----22222----22222-----------------------------------------|
E|-----------xxxxx----00000----xxxxx-----------------------------------------|
    C#m      A2       E        B 


[Chorus]

e|---------------------------------------------------------------------------|
B|--------0--------------------0---------------------------------------------|
G|------1---1----4---------2-----2---2---------------------------------------| 
D|----2------------------2---2-----2-----------------------------------------|
A|-------------2-----0-------------------------------------------------------|
E|--0------------------------------------------------------------------------|
    E          B     A2                                                         x2
e|---------------------------------------------------------------------------|
B|--------5-------------------0----------------------------------------------|
G|------6-------4---------2-----2---2----------------------------------------|
D|----6-----------------2---2-----2------------------------------------------|
A|--4---------2------0-------------------------------------------------------|
E|---------------------------------------------------------------------------|
    C#m       B      A2


[Outro]

e|---------------------------------------------------------------------------|
B|--------0--------------------0---------------------------------------------|
G|------1---1----4---------2-----2---2---------------------------------------|
D|----2------------------2---2-----2-----------------------------------------|
A|-------------2-----0-------------------------------------------------------|
E|--0------------------------------------------------------------------------|
    E          B     A2 
e|---------------------------------------------------------------------------|
B|--------5-------------------0----------------------------------------------|
G|------6-------4---------2-----2---2----------------------------------------|
D|----6-----------------2---2-----2------------------------------------------|
A|--4---------2------0-------------------------------------------------------|
E|---------------------------------------------------------------------------|
    C#m       B      A2
Suggest correction
comments
print report bad tab
14 comments total. Showing first comments.
0 reply
see_jay_7 10 Jul 30, 2003 12:00 AM

This is a cool song. Thanx .

0 reply
Night17 10 Jul 12, 2004 12:00 AM

Well done, well done.

0 reply
Anavrin05 10 Aug 24, 2004 12:00 AM

good tab man

guest
You may want to rate the tab now too:
select rating
Wanna post a correction for this tab? Suggest correction