Oops, an error
Loading. Please wait.

Everything Bass Tab

version 2
version 2

Whole song

Interactive

2,516 views 1 this week
1 commentread comment
1 2 3 4 5
please rate
add to favorites
launch autoscroll
font size
0
reset
guitar tuner
Autoscroll
slow
fast
+/-
esc
set tempo
stop
Help us to improve Ultimate-Guitar.com Take our survey!
×
Difficulty
novice
verse

G-----------------|-----------------|-----------------|-----------------|
D----4------------|-----------------|----4------------|-----------------|
A--------------0~-|-----------------|--------------0~-|-----------------|
E-----------4-----|-----------------|-----------4-----|-----------------|
fill during first verse
G------------------
D---------5h7h8----
A------------------ 
E------------------
chorus
G-----------------|-----------------|-----------------|-----------------|
D-----------------|-----------------|-----------------|-----------------|
A-----------------|-----------------|----4-----2---0~-|-----------------|
E----0------2--4~-|-----------------|-----------------|-----------------|
verse
G-----------------|-----------------|-----------------|-----------------|
D----4------------|-----------------|----4------------|-----------------|
A--------------0~-|-----------------|--------------0~-|-----------------|
E-----------4-----|-----------------|-----------4-----|-----------------|
chorus
G-----------------|-----------------|-----------------|-----------------|
D-----------------|-----------------|-----------------|-----------------|
A-----------------|-----------------|----4-----2---0~-|-----------------|
E----0------2--4~-|-----------------|-----------------|-----------------|
bridge
G-----------------|-----------------|-----------------|-----------------|
D-----------------|-----------------|-----------------|-----------------|
A-4-4-4-4-4-4-4-4-|-0-0-0-0-0-0-0-0-|-----------------|-2-2-2-2-2-2-2-2-|
E-----------------|-----------------|-0-0-0-0-0-0-0-0-|-----------------|
G-----------------|-----------------|-----------------|-----------------|
D-----------------|-----------------|-----------------|-----------------|
A-4-4-4-4-4-4-4-4-|-0-0-0-0-0-0-0-0-|-----------------|-2-2-2-2-2-2-2-2-|
E-----------------|-----------------|-4-4-4-4-4-4-4-4-|-----------------|
chorus
G-----------------|-----------------|-----------------|-----------------|
D-----------------|-----------------|-----------------|-----------------|
A--------------0--|-0-0-0-0-0-0-0-0-|-4-4-4-4-4----1--|---1-1-1-1-1-1-1-|
E-0---0---0-0-----|-----------------|-----------4-----|-----------------|
outro
G-----------------|-----------------|-----------------|-----------------|
D-----------------|-----------------|-----------------|-----------------|
A-----------------|-----------------|----4-----2---0~-|-----------------|
E----0------2--4~-|-----------------|-----------------|-----------------|
Suggest correction
Give kudos to tab author, rate the tab!
1 2 3 4 5
comments
print report bad tab
1 comment total.
0 reply
snaredrum941 10 wrote on July 20 2009, 09:57 am

This is wrong

guest
You may want to rate the tab now too:
select rating
Wanna post a correction for this tab? Suggest correction