Oops, an error
Loading. Please wait.

Everything Bass Tab

version 3
version 3

Whole song

Interactive

1,787 views 1 this week
no commentswrite comment
1 2 3 4 5
please rate
add to favorites
launch autoscroll
font size
0
reset
guitar tuner
Autoscroll
slow
fast
+/-
esc
set tempo
stop
Help us to improve Ultimate-Guitar.com Take our survey!
×
Author
Difficulty
novice
Everything

intro and verse
  this will be played throughout the intro and all the 3 verse
G------------------------|
D------------------------|
A---4-----4-----4--------|
E-----4-5---4-5---4-5----|

chorus
(and how can i stand....any better than this)
G---------------|----------------|
D---------------|----------------|
A---7-----4-----|---7-----4------|
E-----7-5---7-5-|-----7-5---7-5--|

               OR
(and how......moved by you)   (would you.........any better than this)
G--------------------------|----------------------|
D--------------------------|----------------------|
A-----2-0--4--2-0----------|-----2-0--4--2-0------|
E---0----------------------|---0------------------|

repeat verse

outro  X4 times

G-----------------------------------------|
D-----------------------------------------|
A---44444444----------77777777------------|
E------------55555555----------77777777---|

Chorus
play this throughout the chorus..

G------------------------------------------|
D------------------------------------------|
A----77777-------------44444---------------|
E----------77-55555555-------77-55555555---|

                OR
G------------------------------------------|
D------------------------------------------|
A---------22-00000000--44444--22-00000000--|
E---00000----------------------------------|


the last part of the chorus
G------------------------------------------|
D------------------------------------------|
A----77777-------------44444---------------|
E----------77-55555555-------77-5----------|

well thats it....
ive even tabbed the correct acoustic version of everything...but i guess they hvnt put 
up....

hv fun...
dev
Suggest correction
What's this?
You can suggest a correction to this tab. Community and Mods will review your correction and vote to approve or reject it.
comments
We did not receive enough feedback on this tab! Please rate:
print report bad tab
1 2 3 4 5
guest
You may want to rate the tab now too:
select rating
Please do not post tabs as comments. Select "correction" instead!