Oops, an error
Loading. Please wait.

Everything Tab

version 6
version 6

Interactive

17,230 views 12 this week
no commentswrite comment
1 2 3 4 5
x 9
add to favorites
×
Save as Personal and add changes to this tab that will be seen only by you. Learn more ›
×
You can save this tab as Personal to edit and correct it or add notes. All changes will be seen only by you. Learn more »
save as personal
new!
launch autoscroll
font size
0
reset
how to read this tab
guitar tuner
Autoscroll
slow
fast
+/-
esc
set tempo
stop
Author
Everything
[Intro and verse](play this throughout)
e|------0-------------0--------|
B|----5---4--0----0-----0------|
G|---6-----6----6---6-----6----|
D|-----------------------------|
A|--4--------------------------|
E|-----------5-----------------|

(mild)X2 
(listen carefully for the rythm)
and how can i........moved by you
would you tell me......better than this)

e|------0-------0------0--------0------|
B|----------0----0----------0-----0----|
G|----9---8----9--9---9--8-----9---9---|
D|---9--------9------9--------9--------|
A|--7-------0---------------0----------|
E|--------7---------9----7-------------|

[Repeat verse]

[Outro]
[strum x8 times the following chords]
cause youre all i want   C#m
youre all i need         Amaj
youre everything         Emaj
everything               Bmaj


 E        B   A                   C#m      B    A
 and how can i stand here with you and not be moved by you...
 E        B   A                  C#m       B    A
would you tell me how could it be any  better than this..
 E        B   A                   C#m      B    A
and......can..i stand...............and....be..moved by you
 E        B   A                  C#m       B    A
would....tell..me..................any...better..any better than this

Last part(chorus) CLEAN
e|------0-------0------0--------0------|
B|----------0----0----------0-----0----|
G|----9---8----9--9---9--8-----9---9---|
D|---9--------9------9--------9--------|
A|--7-------0---------------0----------|
E|--------7---------9----7-------------|

(would you tell me.....than this)
e|------0-------0------0----------|
B|----------0----0----------0-----|
G|----9---8----9--9---9--8--------|
D|---9--------9------9------------|
A|--7-------0---------------0-----|
E|--------7---------9----7--------|
Suggest correction
comments
print report bad tab
guest
You may want to rate the tab now too:
select rating
Wanna post a correction for this tab? Suggest correction