Oops, an error
Loading. Please wait.

First Time Bass Tab

version 3
version 3

Whole song

Interactive

3,999 views 1 this week
1 commentread comment
1 2 3 4 5
please rate
add to favorites
launch autoscroll
font size
0
reset
guitar tuner
Autoscroll
slow
fast
+/-
esc
set tempo
stop
Help us to improve Ultimate-Guitar.com Take our survey!
×
Author
Difficulty
Tuning
novice
D# G# C# F# A# D#
Tuning: Half Step Down

Gb|----------------------|----------------------|----------------------|
Db|----------------------|----------------------|----------------------|
Ab|----------------------|----------------------|----------------------|
Eb|-5555-7777-9999-11/12-|-5555-7777-9999-11/12-|-5555-7777-9999-11/12-|

|----------------------|----------------------|-------------------------|
|----------------------|----------------------|-------------------------|
|----------------------|----------------------|-------------------------|
|-5555-7777-9999-11/12-|-5555-7777-9999-11/12-|-5555-7777-0000-12121212-|
                                                               Twelves*

|-----------------------------------|
|-----------------------------------|
|-----------------------------------|
|-2222222222222222/5555555555555555-|

|---------------------------------------------------|
|---------------------------------------------------|
|---------------------------------------------------|
|-14141414141414141414141414141414/5555555555554555-|
  Fourteens***********************

|--------------------------------------|----------------------------------|
|--------------------------------------|----------------------------------|
|-77777777-66666666--------------------|-77777777-66666666----------------|
|-------------------22222222-5555-7777-|-------------------22222222-55-77-|

|--------------------------------------|----------------------------------|
|--------------------------------------|----------------------------------|
|-77777777-66666666--------------------|-77777777-66666666----------------|
|-------------------22222222-5555-7777-|-------------------22222222-55-77-|

|----------------------|----------------------|----------------------|
|----------------------|----------------------|----------------------|
|----------------------|----------------------|----------------------|
|-5555-7777-9999-11/12-|-5555-7777-9999-11/12-|-5555-7777-9999-11/12-|

|----------------------|----------------------|----------------------------|
|----------------------|----------------------|----------------------------|
|----------------------|----------------------|----------------------------|
|-5555-7777-9999-11/12-|-5555-7777-9999-11/12-|-5555-7777-12121211-12121211|
                                                        twelves and elevens

|-----------------------------------|
|-----------------------------------|
|-----------------------------------|
|-2222222222222222/5555555555555555-|

|----------------------------------------------------------------|
|----------------------------------------------------------------|
|----------------------------------------------------------------|
|-14141414141414141414141414141414-161616161616161614/161614/1616|
  Fourteens***********************Sixteens******and Fourteens****

|--------------------------------------|----------------------------------|
|--------------------------------------|----------------------------------|
|-77777777-66666666--------------------|-77777777-66666666----------------|
|-------------------22222222-5555-7777-|-------------------22222222-55-77-|

|--------------------------------------|----------------------------------|
|--------------------------------------|----------------------------------|
|-77777777-66666666--------------------|-77777777-66666666----------------|
|-------------------22222222-5555-7777-|-------------------22222222-55-77-|

|---------------------|---------------------|---------------------|
|---------------------|---------------------|---------------------|
|-9~~02~~04~~06~~08~9~|-9~~02~~04~~06~~08~9~|-9~~02~~04~~06~~08~9~|
|---------------------|---------------------|---------------------|

|---------------------------|
|---------------------------|
|-9~~02~~04~~06~~08~9~~~7~~~|
|---------------------------|

Short Pause

|--------------|--------------|-------|
|--------------|--------------|-------|
|--------------|--------------|-------|
|-14/16--14/16-|-14/16--14/16-|-55-77-|

|--------------------------------------|----------------------------------|
|--------------------------------------|----------------------------------|
|-77777777-66666666--------------------|-77777777-66666666----------------|
|-------------------22222222-5555-7777-|-------------------22222222-55-77-|

|--------------------------------------|----------------------------------|
|--------------------------------------|----------------------------------|
|-77777777-66666666--------------------|-77777777-66666666----------------|
|-------------------22222222-5555-7777-|-------------------22222222-55-77-|

|--------------------------------------|----------------------------------|
|--------------------------------------|----------------------------------|
|-77777777-66666666--------------------|-77777777-66666666----------------|
|-------------------22222222-5555-7777-|-------------------22222222-55-77-|

|-------|
|-------|
|-------|
|-7~~~~~|   

End
Suggest correction
Give kudos to tab author, rate the tab!
1 2 3 4 5
comments
print report bad tab
1 comment total.
0 reply
D'VooB 10 wrote on January 20 2009, 09:43 pm

awsome tab, the other ones are no were near as great

guest
You may want to rate the tab now too:
select rating
Please do not post tabs as comments. Select "correction" instead!