Oops, an error
Loading. Please wait.

Fool Tab

version 1
version 1

Whole song

796 views 1 this week
1 commentread comment
1 2 3 4 5
2 more votes to show rating
add to favorites
launch autoscroll
font size
0
reset
how to read this tab
guitar tuner
Autoscroll
slow
fast
+/-
esc
set tempo
stop
Help us to improve Ultimate-Guitar.com Take our survey!
×
Author
Intro:

----------------------------
----------------------------
----------------------------
-----0-2---4-----0---2-0----
---0-----0-----0---0-----1--
-0-----------0--------------


Verse:


-2---0---0---------------------
-3---0---0---------------------
-2---0---0---------------------
-0---0---0---------------------
-0---1---5---------------------
-0---1---6---------------------

Bridge (and i am reaching...) 

-0-0-0-0---0-0--------------------
-0-0-0-3---0-0--------------------
-4-0-4-4---0-0--------------------
-4-0-4-4---2-0--------------------
-0-0-0-0---0-2--------------------
-0-0-0-0---3-3--------------------

(just tryin not to...) 

Chorus 
-2---0---0---0---0---------------
-3---0---0---0---0---------------
-2---4---0---0---0---------------
-0---4---2---2---0---------------
-0---2---2---0---2---------------
-0---0---0---3---3---------------

play (D) until you hit 'fear' then you change to 
(004420)until you reach 'tumbling', then you change 
to (Em).then:
   000203              G
i will be a           fool

Outro = Intro



I have never sent in a tab before, but I think 
that this atleast sounds somewhat like it should. 
If you have a better version,or any sugestions please email it to 
m_deviens@hotmail.com thanks!!
Suggest correction
Give kudos to tab author, rate the tab!
1 2 3 4 5
comments
print report bad tab
1 comment total.
0 reply
m_deviens 30 Mar 08, 2003 12:00 AM

Intro:

------------------------------
------------------------------
------------------------------
-----0---2---4-----0---2-0----
---0---0---0-----0---0-----1--
-0-------------0--------------


Verse: (2x)


-2---0---0---2---0---0------------
-3---0---0---3---0---0------------
-2---0---0---2---0---0------------
-0---0---0---0---0---0------------
-0---1---5---0---1---4------------
-0---1---6---0---1---5------------

Bridge (and i am reaching...) (4x)

-0-0-0-0---0-0--------------------
-0-0-0-3---3-3--------------------
-4-0-4-4---0-0--------------------
-4-0-4-4---0-2--------------------
-0-0-0-0---2-0--------------------
-0-0-0-0---3-3--------------------

(just tryin not to...)

Chorus
-2---0---0---0---0---------------
-3---0---0---3---3---------------
-2---4---0---0---0---------------
-0---4---2---0---2---------------
-0---2---2---2---0---------------
-0---0---0---3---3---------------

play (D) until you hit 'fear' then you change to
(004420)until you reach 'tumbling', then you change
to (Em).then:
G 030203
i will be a fool

repeat intro
verse
bridge
chorus 5x

Outro
---------------------------------
---------------------------------
---------------------------------
-----0---2---4-----0---2-0-----0-
---0---0---0-----0---0-----1-0---
-0-------------0-----------------

guest
You may want to rate the tab now too:
select rating
Wanna post a correction for this tab? Suggest correction