Oops, an error
Loading. Please wait.

From Where You Are Tab

version 2
version 2

Whole song

Interactive

54,908 views 3 this week
6 commentsread comments
1 2 3 4 5
x 18
add to favorites
launch autoscroll
font size
0
reset
how to read this tab
guitar tuner
Autoscroll
slow
fast
+/-
esc
set tempo
stop
Help us to improve Ultimate-Guitar.com Take our survey!
×
Author
This is what I hear and how I play it, I don't claim it to be 100% correct. That is up to you. (:

Standard tuning (EADGBe)

Chord voicings
Fmaj9:xx3010
Am7:x02010
Cmaj9:320010

Intro/Verse (Play twice for intro)

   Fmaj9                     Am7         Cmaj9       
e|-------------0-------------------------------------|
B|---1-------1---1---1----1------1------1-----1------|
G|------0----------0--------0-------------0----------|
D|---3-----3------------------2-------------0--------|
A|------------------------0--------------------------|
E|--------------------------------------3------------|

Play this arpeggio over the verse, changing following the lyrics.


Fmaj9                           Am7      Cmaj9
So far away from where you are

Fmaj9                                  Am7     Cmaj9
These miles have torn us worlds apart

Fmaj9               Am7   Cmaj9
And I miss you

Fmaj9               Am7    Cmaj9
Yeah I miss you

Fmaj9                           Am7      Cmaj9
So far away from where you are

Fmaj9                           Am7      Cmaj9
I'm standing underneath the stars

Fmaj9            Am7     Cmaj9   
And I wish you were here


Chorus

     Am7                 Fmaj9                Am7              Cmaj9
e|------------0---------------------0-----------------0---------------------------|
B|----1-----1---1---1------1------1---1---1---1-----1---1---1---1-----1-1-----1---|
G|------0---------0-----------0---------0-------0---------0-------0-------0-------|
D|--------2----------------3----3-----------------2-----------------0-------0-----|
A|----0---------------------------------------0-----------------------------------|
E|--------------------------------------------------------------3-----------------|

Am7                           Fmaj9
I miss the years that were erased

Am7                              Cmaj9
And I miss the way the sunshine would light up your face

Am7                       Fmaj9
I miss all the little things

Am7                                Cmaj9
I never thought that they'd mean everything to me

Fmaj9               Am7     Cmaj9
Yeah I miss you

Fmaj9               Am7     Cmaj9
And I wish you were here

Back to the verse

   Fmaj9                     Am7         Cmaj9       
e|-------------0-------------------------------------|
B|---1-------1---1---1----1------1------1-----1------|
G|------0----------0--------0-------------0----------|
D|---3-----3------------------2-------------0--------|
A|------------------------0--------------------------|
E|--------------------------------------3------------|

Fmaj9               Am7     Cmaj9
I feel the beating of your heart

Fmaj9               Am7     Cmaj9
I see the shadows of your face

Fmaj9               Am7     Cmaj9
Just know that wherever you are

Fmaj9               Am7     Cmaj9
I miss you

Fmaj9             Am7     Cmaj9
And I wish you were here

Chorus again


     Am7                 Fmaj9                Am7              Cmaj9
e|------------0---------------------0-----------------0---------------------------|
B|----1-----1---1---1------1------1---1---1---1-----1---1---1---1-----1-1-----1---|
G|------0---------0-----------0---------0-------0---------0-------0-------0-------|
D|--------2----------------3----3-----------------2-----------------0-------0-----|
A|----0---------------------------------------0-----------------------------------|
E|--------------------------------------------------------------3-----------------|

Am7                           Fmaj9
I miss the years that were erased

Am7                              Cmaj9
And I miss the way the sunshine would light up your face

Am7                       Fmaj9
I miss all the little things

Am7                                Cmaj9
I never thought that they'd mean everything to me

Fmaj9               Am7     Cmaj9
Yeah I miss you

Fmaj9               Am7     Cmaj9
And I wish you were here

Last verse/Outro

   Fmaj9                     Am7         Cmaj9    Fmaj9  
e|-------------0-------------------------------------0--|
B|---1-------1---1---1----1------1------1-----1------1--|
G|------0----------0--------0-------------0----------0--|
D|---3-----3------------------2-------------0--------3--|
A|------------------------0--------------------------x--|
E|--------------------------------------3------------x--|

Fmaj9                           Am7      Cmaj9
So far away from where you are

Fmaj9                                  Am7     Cmaj9
These miles have torn us worlds apart

Fmaj9               Am7   Cmaj9
And I miss you

Fmaj9               Am7    Cmaj9
Yeah I miss you

Fmaj9               Am7     Cmaj9      Fmaj9
And I wish you were here

Suggest correction
comments
print report bad tab
6 comments total. Showing first comments.
0 reply
xXtypical_emoXx 31 Nov 17, 2007 11:03 PM

nice tab! 100% might just be my opinion but try it a half step down ^-^

0 reply
risetovotesir 10 Jan 08, 2008 08:53 PM

Tabs don't sound too accurate. Chords seem good. Hopefully a more accurate tab of this song gets posted soon.

0 reply
breeza 21 Jun 04, 2008 05:50 AM

i had a look at a couple of versions and this one sounds best :) it may not be exact but the chords are great to sing along to.. good job!

guest
You may want to rate the tab now too:
select rating
Wanna post a correction for this tab? Suggest correction