Oops, an error
Loading. Please wait.

From Where You Are Tab

version 4
version 4

Whole song

Interactive

17,307 views 3 this week
no commentswrite comment
1 2 3 4 5
please rate
add to favorites
launch autoscroll
font size
0
reset
how to read this tab
guitar tuner
Autoscroll
slow
fast
+/-
esc
set tempo
stop
Help us to improve Ultimate-Guitar.com Take our survey!
×
Difficulty
intermediate
intro: 
   Fmaj9                     Am7         Cmaj9       
e|-------------0-------------------------------------|
B|---1-------1---1---1----1------1------1-----1------|
G|------0----------0--------0-------------0----------|
D|---3-----3------------------2-------------0--------|
A|------------------------0--------------------------|
E|--------------------------------------3------------|
verses:
   Fmaj9                     Am7         Cmaj9       
e|-------------0-------------------------------------|
B|---1-------1---1---1----1------1------1-----1------|
G|------0----------0--------0-------------0----------|
D|---3-----3------------------2-------------0--------|
A|------------------------0--------------------------|
E|--------------------------------------3------------|
         So far away from where you are

   Fmaj9                     Am7         Cmaj9       
e|-------------0-------------------------------------|
B|---1-------1---1---1----1------1------1-----1------|
G|------0----------0--------0-------------0----------|
D|---3-----3------------------2-------------0--------|
A|------------------------0--------------------------|
E|--------------------------------------3------------|
      These miles have torn us worlds apart

   Fmaj9                     Am7         Cmaj9       
e|-------------0-------------------------------------|
B|---1-------1---1---1----1------1------1-----1------|
G|------0----------0--------0-------------0----------|
D|---3-----3------------------2-------------0--------|
A|------------------------0--------------------------|
E|--------------------------------------3------------|
                 And I miss you

   Fmaj9                     Am7         Cmaj9       
e|-------------0-------------------------------------|
B|---1-------1---1---1----1------1------1-----1------|
G|------0----------0--------0-------------0----------|
D|---3-----3------------------2-------------0--------|
A|------------------------0--------------------------|
E|--------------------------------------3------------|
                 yeah I miss you

   Fmaj9                     Am7         Cmaj9       
e|-------------0-------------------------------------|
B|---1-------1---1---1----1------1------1-----1------|
G|------0----------0--------0-------------0----------|
D|---3-----3------------------2-------------0--------|
A|------------------------0--------------------------|
E|--------------------------------------3------------|
          So far away from where you are

   Fmaj9                     Am7         Cmaj9       
e|-------------0-------------------------------------|
B|---1-------1---1---1----1------1------1-----1------|
G|------0----------0--------0-------------0----------|
D|---3-----3------------------2-------------0--------|
A|------------------------0--------------------------|
E|--------------------------------------3------------|
        I'm standing underneath the stars

   Fmaj9                     Am7         Cmaj9       
e|-------------0-------------------------------------|
B|---1-------1---1---1----1------1------1-----1------|
G|------0----------0--------0-------------0----------|
D|---3-----3------------------2-------------0--------|
A|------------------------0--------------------------|
E|--------------------------------------3------------|
            And I wish you were here

     Am7                 Fmaj9                Am7              Cmaj9
e|------------0---------------------0-----------------0---------------------------|
B|----1-----1---1---1------1------1---1---1---1-----1---1---1---1-----1-1-----1---|
G|------0---------0-----------0---------0-------0---------0-------0-------0-------|
D|--------2----------------3----3-----------------2-----------------0-------0-----|
A|----0---------------------------------------0-----------------------------------|
E|--------------------------------------------------------------3-----------------|

     Am7                 Fmaj9                Am7              Cmaj9
e|------------0---------------------0-----------------0---------------------------|
B|----1-----1---1---1------1------1---1---1---1-----1---1---1---1-----1-1-----1---|
G|------0---------0-----------0---------0-------0---------0-------0-------0-------|
D|--------2----------------3----3-----------------2-----------------0-------0-----|
A|----0---------------------------------------0-----------------------------------|
E|--------------------------------------------------------------3-----------------|
I miss the years that were erased, And I miss the way the sunshine would light up your face

     Am7                 Fmaj9                Am7              Cmaj9
e|------------0---------------------0-----------------0---------------------------|
B|----1-----1---1---1------1------1---1---1---1-----1---1---1---1-----1-1-----1---|
G|------0---------0-----------0---------0-------0---------0-------0-------0-------|
D|--------2----------------3----3-----------------2-----------------0-------0-----|
A|----0---------------------------------------0-----------------------------------|
E|--------------------------------------------------------------3-----------------|
I miss all the little things,I never thought that they'd mean everything to me

   Fmaj9                     Am7         Cmaj9       
e|-------------0-------------------------------------|
B|---1-------1---1---1----1------1------1-----1------|
G|------0----------0--------0-------------0----------|
D|---3-----3------------------2-------------0--------|
A|------------------------0--------------------------|
E|--------------------------------------3------------|
Yeah I miss you

   Fmaj9                     Am7         Cmaj9       
e|-------------0-------------------------------------|
B|---1-------1---1---1----1------1------1-----1------|
G|------0----------0--------0-------------0----------|
D|---3-----3------------------2-------------0--------|
A|------------------------0--------------------------|
E|--------------------------------------3------------|
And I wish you were here

back to verse:
   Fmaj9                     Am7         Cmaj9       
e|-------------0-------------------------------------|
B|---1-------1---1---1----1------1------1-----1------|
G|------0----------0--------0-------------0----------|
D|---3-----3------------------2-------------0--------|
A|------------------------0--------------------------|
E|--------------------------------------3------------|
I feel the beating of your heart

   Fmaj9                     Am7         Cmaj9       
e|-------------0-------------------------------------|
B|---1-------1---1---1----1------1------1-----1------|
G|------0----------0--------0-------------0----------|
D|---3-----3------------------2-------------0--------|
A|------------------------0--------------------------|
E|--------------------------------------3------------|
I see the shadows of your face

   Fmaj9                     Am7         Cmaj9       
e|-------------0-------------------------------------|
B|---1-------1---1---1----1------1------1-----1------|
G|------0----------0--------0-------------0----------|
D|---3-----3------------------2-------------0--------|
A|------------------------0--------------------------|
E|--------------------------------------3------------|
Just know that wherever you are

   Fmaj9                     Am7         Cmaj9       
e|-------------0-------------------------------------|
B|---1-------1---1---1----1------1------1-----1------|
G|------0----------0--------0-------------0----------|
D|---3-----3------------------2-------------0--------|
A|------------------------0--------------------------|
E|--------------------------------------3------------|
I miss you

   Fmaj9                     Am7         Cmaj9       
e|-------------0-------------------------------------|
B|---1-------1---1---1----1------1------1-----1------|
G|------0----------0--------0-------------0----------|
D|---3-----3------------------2-------------0--------|
A|------------------------0--------------------------|
E|--------------------------------------3------------|
And I wish you were here

chorus again:
     Am7                 Fmaj9                Am7              Cmaj9
e|------------0---------------------0-----------------0---------------------------|
B|----1-----1---1---1------1------1---1---1---1-----1---1---1---1-----1-1-----1---|
G|------0---------0-----------0---------0-------0---------0-------0-------0-------|
D|--------2----------------3----3-----------------2-----------------0-------0-----|
A|----0---------------------------------------0-----------------------------------|
E|--------------------------------------------------------------3-----------------|
I miss the years that were erased, And I miss the way the sunshine would light up your face

     Am7                 Fmaj9                Am7              Cmaj9
e|------------0---------------------0-----------------0---------------------------|
B|----1-----1---1---1------1------1---1---1---1-----1---1---1---1-----1-1-----1---|
G|------0---------0-----------0---------0-------0---------0-------0-------0-------|
D|--------2----------------3----3-----------------2-----------------0-------0-----|
A|----0---------------------------------------0-----------------------------------|
E|--------------------------------------------------------------3-----------------|
I miss all the little things, I never thought that they'd mean everything to me

     Fmaj9                Am7              Cmaj9
e|--------------0-----------------0---------------------------|
B|-----1------1---1---1---1-----1---1---1---1-----1-1-----1---|
G|--------0---------0-------0---------0-------0-------0-------|
D|-----3----3-----------------2-----------------0-------0-----|
A|------------------------0-----------------------------------|
E|------------------------------------------3-----------------|
Yeah I miss you

     Fmaj9                Am7              Cmaj9
e|--------------0-----------------0---------------------------|
B|-----1------1---1---1---1-----1---1---1---1-----1-1-----1---|
G|--------0---------0-------0---------0-------0-------0-------|
D|-----3----3-----------------2-----------------0-------0-----|
A|------------------------0-----------------------------------|
E|------------------------------------------3-----------------|
And I wish you were here

Last verse:
   Fmaj9                     Am7         Cmaj9    Fmaj9  
e|-------------0-------------------------------------0--|
B|---1-------1---1---1----1------1------1-----1------1--|
G|------0----------0--------0-------------0----------0--|
D|---3-----3------------------2-------------0--------3--|
A|------------------------0--------------------------x--|
E|--------------------------------------3------------x--|

   Fmaj9                     Am7         Cmaj9    
e|-------------0---------------------------------|
B|---1-------1---1---1----1------1------1-----1--|
G|------0----------0--------0-------------0------|
D|---3-----3------------------2-------------0----|
A|------------------------0----------------------|
E|--------------------------------------3--------|
So far away from where you are

   Fmaj9                     Am7         Cmaj9    
e|-------------0---------------------------------|
B|---1-------1---1---1----1------1------1-----1--|
G|------0----------0--------0-------------0------|
D|---3-----3------------------2-------------0----|
A|------------------------0----------------------|
E|--------------------------------------3--------|
These miles have torn us worlds apart

   Fmaj9                     Am7         Cmaj9    
e|-------------0---------------------------------|
B|---1-------1---1---1----1------1------1-----1--|
G|------0----------0--------0-------------0------|
D|---3-----3------------------2-------------0----|
A|------------------------0----------------------|
E|--------------------------------------3--------|
And I miss you

   Fmaj9                     Am7         Cmaj9    
e|-------------0---------------------------------|
B|---1-------1---1---1----1------1------1-----1--|
G|------0----------0--------0-------------0------|
D|---3-----3------------------2-------------0----|
A|------------------------0----------------------|
E|--------------------------------------3--------|
Yeah I miss you

   Fmaj9                     Am7         Cmaj9    Fmaj9  
e|-------------0-------------------------------------0--|
B|---1-------1---1---1----1------1------1-----1------1--|
G|------0----------0--------0-------------0----------0--|
D|---3-----3------------------2-------------0--------3--|
A|------------------------0--------------------------x--|
E|--------------------------------------3------------x--|
And I wish you were here
Suggest correction
Give kudos to tab author, rate the tab!
1 2 3 4 5
comments
print report bad tab
guest
You may want to rate the tab now too:
select rating
Wanna post a correction for this tab? Suggest correction