Oops, an error
Loading. Please wait.

Halfway Gone Tab

version 1
version 1

Whole song

Interactive

31,555 views 9 this week
2 commentsread comments
1 2 3 4 5
x 15
add to favorites
launch autoscroll
font size
0
reset
how to read this tab
guitar tuner
×
Best way to learn
"Halfway Gone"
Autoscroll
slow
fast
+/-
esc
set tempo
stop
Author
Band: Lifehouse
Song: Halfway Gone
Album: Smoke&Mirrors

Hey!
I've seen a few tabs and noticed that I play this Song a bit different.
I think that's how Jason play it

-----------
Intro:    |
-----------

e|---------------------------|-----------------|-------------------------|------------------------|
B|---------------------------|-----------------|-------------------------|------------------------|
G|---------------------------|-----------------|-------------------------|------------------------|
D|---------------------------|-----------------|-------------------------|------------------------|
A|11-11-11-11-11-11-11-11-11-|-0-0-0-0-0-0-0-0-|-11-11-11-11-11-11-11-11-|--9--9--9--9--9--9--9--9|
E|9--9--9--9--9--9--9--9--9--|-9-9-9-9-9-9-9-9-|-12-12-12-12-12-12-12-12-|-11-11-11-11-11-11-11-11|

or

e|-----------------|-----------------|-----------------|-----------------|
B|-----------------|-----------------|-----------------|-----------------|
G|-----------------|-----------------|-----------------|-----------------|
D|-6-6-6-6-6-6-6-6-|-----------------|-6-6-6-6-6-6-6-6-|-4-4-4-4-4-4-4-4-|
A|-4-4-4-4-4-4-4-4-|-4-4-4-4-4-4-4-4-|-7-7-7-7-7-7-7-7-|-6-6-6-6-6-6-6-6-|
E|-----------------|-5-5-5-5-5-5-5-5-|-----------------|-----------------|



---------
Verse:  |
---------


e|-------------------------|-----------------|-------------------------|-------------------------|
B|-------------------------|-----------------|-------------------------|-------------------------|
G|-------------------------|-----------------|-------------------------|-------------------------|
D|-------------------------|-----------------|-------------------------|-------------------------|
A|-11-11-11-11-11-11-11-11-|-0-0-0-0-0-0-0-0-|-11-11-11-11-11-11-11-11-|--9--9--9--9--9--9--9--9-|
E|--9--9--9--9--9--9--9--9-|-9-9-9-9-9-9-9-9-|-12-12-12-12-12-12-12-12-|-11-11-11-11-11-11-11-11-|


e|-------------------------|-----------------|-------------------------|-------------------------|
B|-------------------------|-----------------|-------------------------|-------------------------|
G|-------------------------|-----------------|-------------------------|-------------------------|
D|-------------------------|-----------------|-------------------------|-------------------------|
A|-11-11-11-11-11-11-11-11-|-0-0-0-0-0-0-0-0-|-11-11-11-11-11-11-11-11-|--9--9--9--9--9--9--9--9-|
E|-9--9--9--9--9--9--9--9--|-2-2-2-2-2-2-2-2-|-12-12-12-12-12-12-12-12-|-11-11-11-11-11-11-11-11-|


or

e|-----------------|-----------------|-----------------|-----------------|
B|-----------------|-----------------|-----------------|-----------------|
G|-----------------|-----------------|-----------------|-----------------|
D|-6-6-6-6-6-6-6-6-|-----------------|-6-6-6-6-6-6-6-6-|-4-4-4-4-4-4-4-4-|
A|-4-4-4-4-4-4-4-4-|-4-4-4-4-4-4-4-4-|-7-7-7-7-7-7-7-7-|-6-6-6-6-6-6-6-6-|
E|-----------------|-5-5-5-5-5-5-5-5-|-----------------|-----------------|

e|-----------------|-----------------|-----------------|-----------------|
B|-----------------|-----------------|-----------------|-----------------|
G|-----------------|-----------------|-----------------|-----------------|
D|-6-6-6-6-6-6-6-6-|-----------------|-6-6-6-6-6-6-6-6-|-4-4-4-4-4-4-4-4-|
A|-4-4-4-4-4-4-4-4-|-0-0-0-0-0-0-0-0-|-7-7-7-7-7-7-7-7-|-6-6-6-6-6-6-6-6-|
E|-----------------|-2-2-2-2-2-2-2-2-|-----------------|-----------------|






--------------------------------------------------
Pre-Chorus: ("Talk is cheap give me a word....") |
--------------------------------------------------





e|-----------------|-------------------------|--------------------------|----|
B|-----------------|-------------------------|--------------------------|----|
G|-----------------|-------------------------|--------------------------|----|
D|-----------------|-------------------------|--------------------------|----|
A|-0-0-0-0-0-0-0-0-|--9--9--9--9--9--9--9--9-|-11-11-11-11-11-11-11-11--|-11-|
E|-9-9-9-9-9-9-9-9-|-11-11-11-11-11-11-11-11-|--9--9--9--9--9--9--9--9--|-12-|


or


e|-----------------|-----------------|-----------------|---|
B|-----------------|-----------------|-----------------|---|
G|-----------------|-----------------|-----------------|---|
D|-----------------|-4-4-4-4-4-4-4-4-|-6-6-6-6-6-6-6-6-|-6-|
A|-4-4-4-4-4-4-4-4-|-6-6-6-6-6-6-6-6-|-4-4-4-4-4-4-4-4-|-7-|
E|-5-5-5-5-5-5-5-5-|-----------------|-----------------|---|

---------
Chorus: |
---------

e|-0-0-0-0-0-0-0-0-|-0-0-0-0-0-0-0-0-|-0-0-0-0-0-0-0-0-|-0-0-0-0-0-0-0-0-|
B|-0-0-0-0-0-0-0-0-|-0-0-0-0-0-0-0-0-|-0-0-0-0-0-0-0-0-|-0-0-0-0-0-0-0-0-|
G|-6-6-6-6-6-6-6-6-|-2-2-2-2-2-2-2-2-|-1-1-1-1-1-1-1-1-|-4-4-4-4-4-4-4-4-|
D|-6-6-6-6-6-6-6-6-|-2-2-2-2-2-2-2-2-|-2-2-2-2-2-2-2-2-|-4-4-4-4-4-4-4-4-|
A|-4-4-4-4-4-4-4-4-|-0-0-0-0-0-0-0-0-|-2-2-2-2-2-2-2-2-|-2-2-2-2-2-2-2-2-|
E|-----------------|-----------------|-0-0-0-0-0-0-0-0-|-----------------|


----------
Verse    |
----------

-------------
Pre-Chorus  |
-------------

---------------
Chorus        |
---------------

----------------------
Bridge: (Like Verse) |
----------------------

e|-------------------------|-----------------|-------------------------|-------------------------|
B|-------------------------|-----------------|-------------------------|-------------------------|
G|-------------------------|-----------------|-------------------------|-------------------------|
D|-------------------------|-----------------|-------------------------|-------------------------|
A|-11-11-11-11-11-11-11-11-|-0-0-0-0-0-0-0-0-|-11-11-11-11-11-11-11-11-|--9--9--9--9--9--9--9--9-|
E|--9--9--9--9--9--9--9--9-|-9-9-9-9-9-9-9-9-|-12-12-12-12-12-12-12-12-|-11-11-11-11-11-11-11-11-|


e|-------------------------|-----------------|-------------------------|-------------------------|
B|-------------------------|-----------------|-------------------------|-------------------------|
G|-------------------------|-----------------|-------------------------|-------------------------|
D|-------------------------|-----------------|-------------------------|-------------------------|
A|-11-11-11-11-11-11-11-11-|-0-0-0-0-0-0-0-0-|-11-11-11-11-11-11-11-11-|--9--9--9--9--9--9--9--9-|
E|-9--9--9--9--9--9--9--9--|-2-2-2-2-2-2-2-2-|-12-12-12-12-12-12-12-12-|-11-11-11-11-11-11-11-11-|

or

e|-----------------|-----------------|-----------------|-----------------|
B|-----------------|-----------------|-----------------|-----------------|
G|-----------------|-----------------|-----------------|-----------------|
D|-6-6-6-6-6-6-6-6-|-----------------|-6-6-6-6-6-6-6-6-|-4-4-4-4-4-4-4-4-|
A|-4-4-4-4-4-4-4-4-|-4-4-4-4-4-4-4-4-|-7-7-7-7-7-7-7-7-|-6-6-6-6-6-6-6-6-|
E|-----------------|-5-5-5-5-5-5-5-5-|-----------------|-----------------|

e|-----------------|-----------------|-----------------|-----------------|
B|-----------------|-----------------|-----------------|-----------------|
G|-----------------|-----------------|-----------------|-----------------|
D|-6-6-6-6-6-6-6-6-|-----------------|-6-6-6-6-6-6-6-6-|-4-4-4-4-4-4-4-4-|
A|-4-4-4-4-4-4-4-4-|-0-0-0-0-0-0-0-0-|-7-7-7-7-7-7-7-7-|-6-6-6-6-6-6-6-6-|
E|-----------------|-2-2-2-2-2-2-2-2-|-----------------|-----------------|


----------
Chorus   |
----------


That's it.

Hope U like it.

Please Rate it.

Thanks for Voting
Suggest correction
comments
print report bad tab
2 comments total.
0 reply
sayhi666sal 10 Feb 04, 2010 05:43 PM

um... why is it backwards?
XD
i think he would use the whole chords but i'm not sure for this song.
i think it's a good job i haven't plugged in my amp yet XD

+1 reply
Tiadoro 383 Mar 18, 2010 04:09 PM

So I've turned the whole Story upside down. Don't ask me why it was backwards. I was used to it without any reason. But now I've fixed it and I added a second Version of this song, playing easier. Just for you. So please vote it if you like it.

Thanks for watching this tab.

guest
You may want to rate the tab now too:
select rating
Wanna post a correction for this tab? Suggest correction