Oops, an error
Loading. Please wait.

Hanging By A Moment Bass Tab

version 1
version 1

Whole song

Interactive

15,848 views 24 this week
4 commentsread comments
1 2 3 4 5
worth learning
x 7
add to favorites
launch autoscroll
font size
0
reset
guitar tuner
Autoscroll
slow
fast
+/-
esc
set tempo
stop
Help us to improve Ultimate-Guitar.com Take our survey!
×
Title: Hanging By A Moment
Band: Lifehouse
Album: No Name Face

Im a huge Lifehouse fan and when i saw the posting of
Hanging i went balistic. The whole thing seems right
but i have a few corrections to make. Don Fisher
(dwfisher13@collegeclub.com) did a good job at it, but
just by playing it 24/7 to learn it, i noticed a few
minor things wrong. here is my take on it. this is my
first time submitting a tab so please have some faith.
 

First off, try playing in E flat rather than Drop D,
sounds better.

Intro:
E#---12/1-1~---  *repeat several times

before going into the chorus riff:
E#--1\12--  
(you'll know when u play with song what im talking
about)

Chorus 1 Riff:
A----2--0--5--  ---2--0------
E#------------  ---------0---  *repeat 2 times

Verse:
G--------7------------   --------7-------------
D----5-7---777-9-7-9-7   ----5-7---777-5-4-0---
A--5------------------   --5-------------------
E#--------------------   ----------------------
*repeat as many times needed...timeing is really
tricky so pay attention

Chorus 2 riff:
A--2222-0000-5555--5-6-7-  --2222-0000-5555-5-----
E#-----------------------  -------------------5-0-
*repeat about 4 times

Interlude 1:
A--554-554-554-554--556-556-556-556 *repeat 2 times
and go into secound interlude with:
A--777777777-

Interlude 2:
A---55555-00000-------00000-
E#--------------22222------- *repeat 2.5 times

Then-- go back to intro...then to verse..then to
chorus 2...and end with chorus 1 riff.

ok, this was my frist time tabbing a song so please be
gentle. send any words of advise to
FacelessBassist@yahoo.com
peace and happy playing,
Mike
Suggest correction
What's this?
You can suggest a correction to this tab. Community and Mods will review your correction and vote to approve or reject it.
comments
print report bad tab
4 comments total. Showing first comments.
0 reply
thoobus 0 wrote on December 3 2001, 12:00 am

a little hard to under stand

0 reply
Verto66 12 wrote on November 16 2002, 12:00 am

you say play in E flat (Eb) but in the tabs you wrote as E#. Also, could you write the complete tableture form, not just a few lines of it, its hard t ounderstand.

0 reply
BASSMANIAC 11 wrote on July 17 2003, 12:00 am

Intro:

A--11/4--6/4--
D------------- *repeat 3 times

Chorus 1 Riff:
A----------4-- --------------- ----------4-- ---------------
D----8--6----- ---8--6--3----- ----8--6----- ---8--6--------

Verse:
G---------------------------------------------------------------
D---------4-6--6----------8-6-8---------4-6--6---------4-3-4-3--
A--4-4-4---------4-4-4-4----------4-4-4--------4-4-4-4----------
D---------------------------------------------------------------
*repeat 3 times needed...timeing is really
tricky so pay attention

Chorus 2 Riff:
A----------4444444-------------------------------------
D--88888-6-3---------0-88888-6-3333-6-3-6-3-6/888------
*repeat about 4 times with slight variations

Interlude 1:
D----------------4-6-----------------------------1------------------------1
A-------------44-----44-----------------------------------------------------
D--44-3-4-3-4------------44-3-4-3-4--88--44--66--1----44--66--1----44--66--
between the main chords I play some more notes (there are so), but I wrote it quick

Chorus 1 Riff:
A----------4-- --------------- ----------4-- ---------------
D----8--6----- ---8--6--3----- ----8--6----- ---8--6--------

Verse:
G---------------------------------------------------------------
D---------4-6--6----------8-6-8---------4-6--6---------4-3-4-3--
A--4-4-4---------4-4-4-4----------4-4-4--------4-4-4-4----------
D---------------------------------------------------------------

Chorus 2 Riff:
A----------4444444-------------------------------------
D--88888-6-3---------0-88888-6-3333-6-3-6-3-6/888------
*repeat with slight variations

guest
You may want to rate the tab now too:
select rating
Please do not post tabs as comments. Select "correction" instead!