Oops, an error
Loading. Please wait.

Hanging By A Moment bass

version 3
version 3

Whole song

Interactive

3,023 views 15 this week
no commentswrite comment
1 2 3 4 5
x 3
add to favorites
×
Save as Personal and add changes to this tab that will be seen only by you. Learn more ›
×
You can save this tab as Personal to edit and correct it or add notes. All changes will be seen only by you. Learn more »
launch autoscroll
font size
0
reset
guitar tuner
edit
Autoscroll
slow
fast
+/-
esc
set tempo
stop
Lifehouse
Hanging By A Moment

Transcribed By: Michael Angelo B. Tindugan

Drop D Tunning

~ let ring

Intro and 1st Verse  (0:01)
Gb---------------|
Db---------------|   X2
Ab-12/5~---7/5~--|
Db---------------|

Bass Fill (with chorus effect)  (0:12)
Gb-r---12-1114~---r---14-16~----|
Db-e---------------e------------|
Ab-s---------------s------------|
Db-t---------------t------------|

1st Chorus (with chorus effect)  (0:24)
Gb-------------------------r--------------r-----------|
Db-------------------------e--------------e-----------|
Ab---------5~------0-------s----------5~--s-----------|
Db-9~--7~------9~----7/4~--t--9~--7~------t--9~--7-7--|

chorus effect off
Gb-------------------------------------------------7-------------|
Db-------5~--7------------9-7-9-------5~--7-----------5-4-5-4----|
Ab-5-5-5-------5-5-5-5-5/--------5-5-5-------5-5-5---5-----------|
Db---------------------------------------------------------------|

2nd Verse  (0:45)
Gb-------------------7--------------------------------------|
Db-------5~--7-----------9-7-9-------5~--7-----------5-4-5--|
Ab-5-5-5-------5~--5---5-------5-5-5-------5-5-5-5-5--------|
Db----------------------------------------------------------|

Gb--------------------------------------------------------------|
Db-------5~--7-----------9-7--9---------5-7-----------5-4-------|
Ab-5-5-5-------5-5-5-5-5--------5-5-5-5-----5-5-5-5-7-----5-0~--|
Db--------------------------------------------------------------|

2nd Chorus  (1:01, 2:37)
Gb------------------------------------------------------------------|
Db------------------------5-4--------------0-2-0-----------------0--|
Ab-2-2-2--2-0-2-5--5-5-5------5-0--2-2-2-2-------4-4-4-4-4-4-4-4----|
Db------------------------------------------------------------------|

Gb--------------------------------------------------------------------|
Db---------------------------5-4-0------------------------------------|
Ab-2-2-2-2--2-0-2-5--5-5-5-5-------0-2-2-2-2-2-0-----------------0----|
Db-----------------------------------------------2-0-0-0-0-2-2-4---4--|

Gb--------------------------------------------------------------------|
Db--------------------------5-4--------------0-2-0--------------------|
Ab-2-2-2-2--2-0-2-5~--5-5-5-----5-0--2-2-2-2-------------------0---0--|
Db-------------------------------------------------4~--4-4-4-4---4----|

Gb--------------------------------------------------------------7---7----|
Db---------------------------5-4-0---------------------------------------|
Ab-2-2-2-2--0-2-0-5--5-5-5-5-------0--2-2-2-2-2-0-2---------------5---0--|
Db--------------------------------------------------0--0-0-0-0-----------|

Bridge  (1:31)
Gb------------------------------------------------------------|
Db-------------------------------------5-7-7---------5-7-7----|
Ab---------4-5------------4-5--5-5-5-5-------5-5-5-5----------|
Db-5-5-5-5-----5--5-5-5-5-------------------------------------|

Gb----------------------------------------2-4-4--------------------|
Db--------------------------------------------------0-----0---0----|
Ab--------4-5-5-----------4-5-5---2-2-2-2-------2~----2-2---2---2--|
Db-5--5-5-------5~---5-5-------------------------------------------|

(1:47)
Gb------------------------------------------------------------------|
Db-------------------------0-2-2-2--------0-2-2------------0---2----|   X2
Ab--------4-5-5----0-0-0-0---------------------------------------0--|
Db-5--5-5-------5-------------------2--2--------2--2-2-2-2---2------|

Gb---------------------------------------------|
Db--------------------------0-2-2---------12/--|
Ab---------4-5-5----0-0-0-0--------------------|
Db-5-5-5-5-------5-----------------2~~---------|

(2:10)
Gb---------------|
Db---------------|   X2
Ab-12/5~---7/5~--|
Db---------------|

(2:18)
Gb-------------------7--------------------------------------|
Db-------5~--7-----------9-7-9-------5~--7-----------5-4-5--|   X2
Ab-5-5-5-------5~--5---5-------5-5-5-------5-5-5-5-5--------|
Db----------------------------------------------------------|

3rd Verse  (2:18)
Gb-----|
Db-----|
Ab-5~--|
Db-----|

(just hangning by a moment)
Gb-------------------|
Db-------------------|
Ab-------------0-----|
Db-0-0-0-24-4---4----|

Outro  (3:08)
Gb---------------------------------------------------------------------|
Db---------------------------5-4-0------------0-2-0--------------------|
Ab-2-2-2-2--2-0-2-5--5-5-5-5-------0--2-2-2-2---------------------0-1--|
Db--------------------------------------------------4--4-4-4--4-4------|

            
            
Suggest correction
Creating personal tab
Creating personal tab
You can edit any tab online and save it as your Personal.

You can edit, replace or remove any tab part or add personal notes – all changes will be seen only by you.

Personal tabs can be accessed anytime from any device, even offline.
Learn more »
Give kudos to tab author, rate the tab!
1 2 3 4 5
comments
print report bad tab
guest
Wanna post a correction for this tab? Suggest correction