Oops, an error
Loading. Please wait.

Hanging By A Moment Chords

version 4
version 4
367,656 views 537 this week
17 commentsread comments
1 2 3 4 5
accurate
x 78
add to favorites
launch autoscroll
font size
0
reset
transpose
0
reset
display chords
guitar tuner
Autoscroll
slow
fast
+/-
esc
set tempo
stop
Help us to improve Ultimate-Guitar.com Take our survey!
×
Author
NOTE this intro repeat till the chorus

[INTRO]

E----------------------------------------------|
B----------------------------------------------|
G----------------------------------------------|
D-----0-2-0-----0---5-4-0----------------------|
A---0-------0-0---0----------------------------|
E-0--------------------------------------------|

Desperate for changing
Starving for truth
Closer to where i Started
Chasing after you


[CHORUS]

       Bm                        A     D
and i'm falling even more in love with you
D             Bm           A   D
letting go of all i've held on to
                    Bm          A   D
i'm standing here until you make me move
                Bm          A     D
i'm hanging by a moment here with you


[WITH INTRO]

E----------------------------------------------|
B----------------------------------------------|
G----------------------------------------------|
D-----0-2-0-----0---5-4-0----------------------|
A---0-------0-0---0----------------------------|
E-0--------------------------------------------|

forgetting all i'm lacking
completely incomplete
i'll take your invitation
you take all of me


[CHORUS]

       Bm                        A     D
now.. i'm falling even more in love with you
D             Bm           A   D
letting go of all i've held on to
                   Bm          A   D
i'm standing here until you make me move
                Bm          A     D
i'm hanging by a moment here with you

      Bm                        A     D
i'm living for the only thing i know
D             Bm           A     D
i'm running and not quite sure where to go
                   Bm          A   D
i don't know what i'm diving into
               Bm          A     D
just hanging by a moment here with you


[BRIDGE]

                       G
there's nothing else to lose
               D
nothing left to find
                   G
there's nothing in the world
                   D
that could change my mind
          G A Em G A
there is nothing else
         G A Em G A
there is nothing else...


[WITH INTRO]

E----------------------------------------------|
B----------------------------------------------|
G----------------------------------------------|
D-----0-2-0-----0---5-4-0----------------------|
A---0-------0-0---0----------------------------|
E-0--------------------------------------------|

Desperate for changing
Starving for truth
Closer where i Started
Chasing after you


[CHORUS]

     Bm                        A     D
i'm living for the only thing i know
D             Bm           A     D
i'm running and not quite sure where to go
                   Bm          A   D
i don't know what i'm diving into
              Bm          A     D
just hanging by a moment here with you
              Bm          A     D
just hanging by a moment
     Bm
hanging by a moment..
     Bm
hanging by a moment...
         Bm          A     D
hanging by a moment here with you..
Suggest correction
What's this?
You can suggest a correction to this tab. Community and Mods will review your correction and vote to approve or reject it.
comments
print report bad tab
17 comments total. Showing first comments. show 1 bad comment
+2 reply
zuperman_90 306 wrote on April 6 2005, 12:00 am

good tab

+3 reply
mat waters 364 wrote on May 25 2006, 01:27 am

try drop D mate.
good stuff

guest
You may want to rate the tab now too:
select rating
Please do not post tabs as comments. Select "correction" instead!