Oops, an error
Loading. Please wait.

Hanging By A Moment Tab

version 4
17,538 views 6 this week
2 commentsread comments
1 2 3 4 5
accurate
x 5
add to favorites
launch autoscroll
font size
0
reset
how to read this tab
guitar tuner
Autoscroll
slow
fast
+/-
esc
set tempo
stop
Help us to improve Ultimate-Guitar.com Take our survey!
×
Author
 
It has both guitar parts
drop d... 1/2 step down

intro 1
|-------------------------|-----------------------------------
|-------------------------|-----------------------------------
|-------------------------|-----------------------------------
|---------0------0--------|-------0-------5--4--0-------------
|------0-----7----------0-|----0------0------------0----------
|---0----------------0----|-0---------------------------------

|-------------------------|-----------------------------------
|-------------------------|-----------------------------------
|-------------------------|-----------------------------------
|---------0------0--------|-------0-------5--4--0-------------
|------0-----7----------0-|----0------0------------0----------
|---0----------------0----|-0---------------------------------

des   -  per-ate   for__ chang  -  in            starv   -   in    for__ truth__
|-----------------------------|-------------------|------------------------------
|-----------------------------|-------------------|------------------------------
|-----------------------------|-------------------|------------------------------
|--------------0------0-------|--------5--4--0----|--------0------0------0-------
|------0---7----------------0-|--0---0----------0-|-----0-----7-----------------0
|--0--------------0------0----|----0--------------|--0----------------0------0---
__                       I___'m  clos-er   to  where I    start  -   ed_________    Im
|---------------------------|------------------------------|-------------------------
|---------------------------|------------------------------|-------------------------
|---------------------------|------------------------------|-------------------------
|-0---0------5--4--0--------|-------0-------0--------------|-----0-----5--4--0-------
|--------0-------------0----|----0-----7--------------0----|--0-----0------------0---
|---0-----------------------|-0-----------0------0---------|-------------------------
chas   -   ing      af  -  ter___    you____    I'm  fall - ing   e - ven
|-----------------------------------------|--------------------------------
|-----------------------------------------|--------------------------------
|-----------------------------------------|--------------------------------
|----------0-----------------0------------|--------------------------------
|-----0----------7----9-------------------|-(5)----------------------------
|-0---------------------------------------|--------------------------------

 more in love__ with you__   let-ting go of  all I___'ve held__ on to_Im standing here 
|------------------------|-----------------|----------------------|----------------
|-----------------7------|-----------------|-----------------7----|----8---7-------
|-7-------9-----------7--|---9-------7-----|--7-------9---------7-|----------------
|------------------------|-----------------|----------------------|-----------9--7-
|------------------------|-----------------|----------------------|----------------
|------------------------|-----------------|----------------------|----------------

un - till  you make__ me   move.___   I   'm hang-in by a  mo - ment here__  with you
|-------------------------------|----------------------|----------------------------
|---------------------7---------|----------------------|--------------------7-------
|---7----------9------------7---|-----9---------7------|---9---------7-----------7--
|-------------------------------|----------------------|----------------------------
|-------------------------------|----------------------|----------------------------
|-------------------------------|----------------------|----------------------------

intro 2
|-------------------------|-----------------------------------
|-------------------------|-----------------------------------
|-------------------------|-----------------------------------
|---------0-------0-------|-------0-------5--4--0-------------
|------------7----------0-|----0------0-----------------------
|---0---------------------|-----------------------------------
                                                        for-
|-------------------------|-----------------------------------
|-------------------------|-----------------------------------
|-------------------------|-----------------------------------
|---------0-------0-------|-------0-------5--4--0-------------
|------------7----------0-|----0------0-----------------------
|---0---------------------|-----------------------------------
  
  get-ting    all__  I\\\'m__ lack - ing        com-plete-ly     in  -  com - plete_
|-----------------------------|-------------------|------------------------------
|-----------------------------|-------------------|------------------------------
|-----------------------------|-------------------|------------------------------
|--------------0------0-------|--------5--4--0----|--------0------0------0-------
|------0---7----------------0-|--0---0----------0-|-----0-----7-----------------0
|--0--------------0------0----|----0--------------|--0----------------0------0---  

____              I___'ll  take your     in  -  vi   -  ta  -  tion
|---------------------------|------------------------------|-------------------------
|---------------------------|------------------------------|-------------------------
|---------------------------|------------------------------|-------------------------
|-0---0------5--4--0--------|-------0--------0-------------|-----0-----5--4--0-------
|--------0-------------0----|----0-----7-------------0-----|--0-----0------------0---
|---0-----------------------|-0-----------0------0---------|-------------------------

You take         all__    of       me     now     I'm   fall - ing   e - ven
|-----------------------------------------|--------------------------------
|-----------------------------------------|--------------------------------
|-----------------------------------------|--------------------------------
|----------0-----------------------0------|--------------------------------
|-----0-----------7------9----------------|-(5)----------------------------
|-0---------------------------------------|--------------------------------`

    more in love with   you__let-ting go of  all  I've held_on  to__ im standing here 
 ---4------------0/----7---------------------4--------------0/---7-------------------
 ---4------------0/----7---------------------4--------------0/---7-------------------
 ---4------------2/----7---------------------4------------- 2/---7-------------------
 ---4------------2/----7---------------------4--------------2/---7-------------------
 ---2------------0/----5---------------------2--------------0/---5-------------------
 ----------------0/-----------------------------------------0/-----------------------
until  you  make me     move  im hanging by a moment_here with you_im living for that
 ---4------------0/----7---------------------4------------0/---7---------------------
 ---4------------0/----7---------------------4------------0/---7---------------------
 ---4------------2/----7---------------------4------------2/---7---------------------
 ---4------------2/----7---------------------4------------2/---7---------------------
 ---2------------0/----5---------------------2------------0/---5---------------------
 ----------------0/---------------------------------------0/-------------------------

     only thing  i   know, im runnin and not quite sure where to  go_and i dont know 
 ---4------------0/--7-----------------------4----------------0/---7----------------
 ---4------------0/--7-----------------------4----------------0/---7----------------
 ---4------------2/--7-----------------------4----------------2/---7----------------
 ---4------------2/--7-----------------------4----------------2/---7----------------
 ---2------------0/--5-----------------------2----------------0/---5----------------
 ----------------0/-------------------------------------------0/--------------------

 what im diving in__ to       just hanging by a moment here with you____
 ---4------------0/----7-----------------------4------------0/---7---------
 ---4------------0/----7-----------------------4------------0/---7---------
 ---4------------2/----7-----------------------4------------2/---7---------
 ---4------------2/----7-----------------------4------------2/---7---------
 ---2------------0/----5-----------------------2------------0/---5---------
 ----------------0/-----------------------------------------0/-------------

bridge
                             G
There's noth-ing  else_   to lose_

                  guiatr 2 --5------
                           --8------
                           --7------
                           --5------
                           --5------
                           --5------
                            
                                                            D 
                                there'   s noth-ing else to find_______
|------------------------|-------------------------|-----------------------------
|------------------------|-------------------------|-------------------1/2bend---
|------------------------|-------------------------|-----------------------------
|------------------------|-------------------------|-------7--7--------4^(4)-----
|-------5--5--------5--5-|-------5--5--------5--5--|-5--5--------5--5------------
|-5--5--------4--5-------|-5--5--------4--5--------|-----------------------------
                                                            D
                                                  guitar 2 -7--------------------
                                                           -7--------------------
                                                           -7--------------------
                                                           -7--------------------
                                                           -5--------------------
                                                           ----------------------
                                   G
        there'   s  noth-ing in the world                     that could change my
|--------------------------|--------------------------|--------------------------
|--------------------------|--------------------------|--------------------------
|--------------------------|--------------------------|--------------------------
|--------7--7--------------|--------------------------|--------------------------
|--5--5--------5--5--------|--------5--5--------5--5--|--------5--5--------5--0--
|--------------------0--0--|--5--5--------4--5--------|--5--5--------4--5--------
                        guitar 2 --5-------------------------------------------
                                 --8-------------------------------------------
                                 --7-------------------------------------------
                                 --5-------------------------------------------
                                 --5-------------------------------------------
                                 --5-------------------------------------------
guitar 2
D
mind_____                                                 theres_  noth-ing 
-7-------------------------------------------------------------------------------
-7-------------------------------------------------------------------------------
-7-------------------------------------------------------------------------------
-7-------------------------------------------------------------------------------
-5-------------------------------------------------------------------------------
---------------------------------------------------------------------------------


G               A                E                    
else____________________________________                        There is noth-ing
|---------7----------|-----------------|------------------|----------------------
|----------------10--|--8--------7-----|--7---------------|----------------------
|--9^ (9)------------|---------------9-|---------9--------|-----------------7----
|--------------------|-----------------|----------------9-|--7---------9---------
|--------------------|-----------------|------------------|----------------------
|--------------------|-----------------|------------------|----------------------

guitar 2
 G             A                 E
-5-------------7-----------------2------------------------------------------------
-8-------------10----------------5------------------------------------------------
-7-------------9-----------------4------------------------------------------------
-5-------------7-----------------2------------------------------------------------
-5-------------7-----------------2------------------------------------------------
-5-------------7-----------------2------------------------------------------------

G              A                 E
else_____________________________________                       There is noth-ing
|-------------------|-------------------|-------------------|--------------------
|-7-----------------|-------------------|-7-----------------|--------------------
|--------9----------|---------------7---|--------9----------|------------------7-
|----------------9--|---7-------9-------|----------------9--|-----7-------9------
|-------------------|-------------------|-------------------|--------------------
|-------------------|-------------------|-------------------|--------------------

guitar 2
-5-------------7-----------------2------------------------------------------------
-8-------------10----------------5------------------------------------------------
-7-------------9-----------------4------------------------------------------------
-5-------------7-----------------2------------------------------------------------
-5-------------7-----------------2------------------------------------------------
-5-------------7-----------------2------------------------------------------------

else_____________________________________
|----------------|-------------|----------------------------------------
|-7-----------8--|--7--------7-|----------------------------------------
|-------9--------|--------9----|-9--------------------------------------
|----------------|-------------|----------------------------------------
|----------------|-------------|----------------------------------------
|----------------|-------------|----------------------------------------

guitar 2
 G             A                 E
-5-------------7-----------------2------------------------------------------------
-8-------------10----------------5------------------------------------------------
-7-------------9-----------------4------------------------------------------------
-5-------------7-----------------2------------------------------------------------
-5-------------7-----------------2------------------------------------------------
-5-------------7-----------------2------------------------------------------------



intro 1
|-------------------------|-----------------------------------
|-------------------------|-----------------------------------
|-------------------------|-----------------------------------
|---------0------0--------|-------0-------5--4--0-------------
|------0-----7----------0-|----0------0------------0----------
|---0----------------0----|-0---------------------------------
 guitar 2
b---------------------7-----------------------------------------
g---7----9--------------7---------------9----7------------------

|-------------------------|-----------------------------------
|-------------------------|-----------------------------------
|-------------------------|-----------------------------------
|---------0------0--------|-------0-------5--4--0-------------
|------0-----7----------0-|----0------0------------0----------
|---0----------------0----|-0---------------------------------

guitar 2
b----------------------7------------------8--7--------
g---7----9---------------7-------------------------9---

des   -  per-ate   for__ chang  -  in            starv   -   in    for__ truth__
|-----------------------------|-------------------|------------------------------
|-----------------------------|-------------------|------------------------------
|-----------------------------|-------------------|------------------------------
|--------------0------0-------|--------5--4--0----|--------0------0------0-------
|------0---7----------------0-|--0---0----------0-|-----0-----7-----------------0
|--0--------------0------0----|----0--------------|--0----------------0------0---
__                       I___'m  clos-er   to  where I    start  -   ed_________   Im
|---------------------------|------------------------------|-------------------------
|---------------------------|------------------------------|-------------------------
|---------------------------|------------------------------|-------------------------
|-0---0------5--4--0--------|-------0-------0--------------|-----0-----5--4--0-------
|--------0-------------0----|----0-----7--------------0----|--0-----0------------0---
|---0-----------------------|-0-----------0------0---------|-------------------------
chas   -   ing    af  -  ter___    you__                             I'm falling even
|-----------------------------------------------------------------------|
|-----------------------------------------------------------------------|
|-----------------------------------------------------------------------|
|----------0----------------------0------------0----5---4----0-------0--|
|-----0-----------7------9-----------------0---------------------0------|
|-0------------------------------------0--------------------------------| 


 



    more in love with   you__let-ting go of  all I've held__on  to_im standing here 
 ---4------------0/----7---------------------4--------------0/--7------------------
 ---4------------0/----7---------------------4--------------0/--7------------------
 ---4------------2/----7---------------------4--------------2/--7------------------
 ---4------------2/----7---------------------4--------------2/--7------------------
 ---2------------0/----5---------------------2--------------0/--5------------------
 ----------------0/-----------------------------------------0/---------------------

 until you  make  me   move  im hanging by a moment here with you_im living for that
 ---4------------0/----7--------------------4------------0/---7-------------------
 ---4------------0/----7--------------------4------------0/---7-------------------
 ---4------------2/----7--------------------4------------2/---7-------------------
 ---4------------2/----7--------------------4------------2/---7-------------------
 ---2------------0/----5--------------------2------------0/---5-------------------
 ----------------0/--------------------------------------0/-----------------------

     only thing  i   know, im runnin and not quite sure where to  go_and i dont know 
 ---4------------0/--7-----------------------4----------------0/--7----------------
 ---4------------0/--7-----------------------4----------------0/--7----------------
 ---4------------2/--7-----------------------4----------------2/--7----------------
 ---4------------2/--7-----------------------4----------------2/--7----------------
 ---2------------0/--5-----------------------2----------------0/--5----------------
 ----------------0/-------------------------------------------0/-------------------

 what im diving  in__ to  Just hanging by a  moment here with you Just hanging by a
 ---4------------0/----7--------------------4------------0/---7-----------------
 ---4------------0/----7--------------------4------------0/---7-----------------
 ---4------------2/----7--------------------4------------2/---7-----------------
 ---4------------2/----7--------------------4------------2/---7-----------------
 ---2------------0/----5--------------------2------------0/---5-----------------
 ----------------0/--------------------------------------0/---------------------

     mo____me______nt        Just hanging by a  mo_____me____nt  Just hanging by a 
 ---4------------0/----7-----------------------4------------0/---7----------------
 ---4------------0/----7-----------------------4------------0/---7----------------
 ---4------------2/----7-----------------------4------------2/---7----------------
 ---4------------2/----7-----------------------4------------2/---7----------------
 ---2------------0/----5-----------------------2------------0/---5----------------
 ----------------0/-----------------------------------------0/--------------------


    mo____me______nt        Just hanging by a   moment here with you___
 ---4------------0/----7-----------------------4------------0/---7---------------
 ---4------------0/----7-----------------------4------------0/---7---------------
 ---4------------2/----7-----------------------4------------2/---7---------------
 ---4------------2/----7-----------------------4------------2/---7---------------
 ---2------------0/----5-----------------------2------------0/---5---------------
 ----------------0/-----------------------------------------0/-------------------


=^_^=

if ya wanna talk to me 'bout it..check me deh ~~>  roze_angel@hotmail.com

                                                                -sleepwalker-
Suggest correction
What's this?
You can suggest a correction to this tab. Community and Mods will review your correction and vote to approve or reject it.
comments
print report bad tab
2 comments total.
0 reply
ru1ofus 11 wrote on September 13 2006, 06:14 am

perfect

0 reply
nightshade101 204 wrote on May 20 2007, 03:21 am

very nice tab but the bridge is a bit confusing
4 stars

guest
You may want to rate the tab now too:
select rating
Please do not post tabs as comments. Select "correction" instead!