Oops, an error
Loading. Please wait.

Hanging By A Moment Tab

version 5
5,439 views 3 this week
1 commentread comment
1 2 3 4 5
please rate
add to favorites
launch autoscroll
font size
0
reset
how to read this tab
guitar tuner
Tab Pro tools
  • play this tab
  • loop segment
  • change instrument
  • show fretboard
  • metronome
×
Best way to learn
"Hanging By A Moment"
Autoscroll
slow
fast
+/-
esc
set tempo
stop
Contributor
Difficulty
novice
            Intro/verse
|------------------------------------------------|
|------------------------------------------------|
|--------------------------------0---------------|
|--------0---2---0-----------0-------3--2--0-----|Repeat 5x
|----0---------------0---0-0---------------------|
|0-----------------------------------------------|

|------------------------------------------------|
|------------------------------------------------|
|------------------------------------------------|
|------0---2---0---------------------------------|
|---0--------------0hold-------------------------|
|0-----------------------------------------------|

1st guitar   (chorus)
|---0---2---------0---------0-----2---------3-2-0--|
|3-----------3----------3---------------3---------3|
|--------------------------------------------------|
|--------------------------------------------------|
|--------------------------------------------------|
|--------------------------------------------------|

|---0---2-------0---------2-----0----------------|
|3----------3--------3---------------3-----------|
|------------------------------------------------|
|------------------------------------------------|
|------------------------------------------------|
|------------------------------------------------|
verse is played 5X then the 1st guitar plays this for the chorus:
|--------------------------------------------------|
|--------------------------------------------------|
|---0---2---------0---------0-----2---------3-2-0--|
|3-----------3----------3---------------3---------3|X3
|--------------------------------------------------|
|--------------------------------------------------|


|---0---2-------0---------2-----0----------------|
|3----------3--------3---------------3-----------|
|------------------------------------------------|
|------------------------------------------------|
|------------------------------------------------|
|------------------------------------------------|



2nd guitar (chorus)
|--------------------------------------------------|
|--------------------------------------------------|
|--------------------------------------------------|
|9-9--9---9---9--9---9---0-------------------------|repeat 3 times
|7-7--7---7---7--7---7-----4-2-0-------------------|
|7-7--7---7---7--7---7-----------------------------|
Then
|-----------------------------------------------|
|-----------------------------------------------|
|-----------------------------------------------|
|9-9-9--11---9----------------------------------|
|7-7-7--9----7----------------------------------|
|7-7-7--9----7----------------------------------|

After the chorus, the intro to the bridge
1st guitar only
|-----------------|   |------------------|
|-----------------|   |------------------|
|-----------------|x2 |---------------^--|
|-----------------|   |-----2-2-----2-2--|x2
|----2-2------2-2-|   |-3-3-----3-3------|
|3-3------3-3-----|   |------------------|


|-----------------|   |------------------|
|-----------------|   |------------------|
|-----------------|x2 |------------------|
|-----------------|   |-----2-2-----2-2--|x2
|----2-2------2-2-|   |-3-3-----3-3------|
|3-3------3-3-----|   |------------------|

bridge
1st guitar plays chords on top
 G               D               A            G
|---9--7--------------------------------------------|
|7-----------------------7-----7--------------------|
|---------9--7--------7-----9-----9--7--------7--9--|
|---------------9--7--------------------9--7--------|
|---------------------------------------------------|
|---------------------------------------------------|

 D       A        G         
|-----------------7----------------------------|
|7-------------7----7--------------------------|
|--9--7-----7---------9---7--------------------|
|--------9-------------------------------------|
|----------------------------------------------|
|----------------------------------------------|

1st guitar after bridge/solo

|------------------------------------------------|
|------------------------------------------------|
|--------------------------------0---------------|
|--------0---2---0-----------0-------3--2--0-----|Repeat 6x
|----0---------------0---0-0---------------------|
|0-----------------------------------------------|


2nd guitar
|---0---2---------0---------0-----2---------3-2-0--|
|3-----------3----------3---------------3---------3|
|--------------------------------------------------|
|--------------------------------------------------|repeat 5x
|--------------------------------------------------|
|--------------------------------------------------|

|---0---2-------0---------2-----0----------------|
|3----------3--------3---------------3-----------|
|------------------------------------------------|
|------------------------------------------------|during 6th of Verse
|------------------------------------------------|
|------------------------------------------------|


^Chorus with both guitars, see above^
Ending
1st
mo-ment here with  you
|------------------------------------------------|
|4---4---6----4-----2----------------------------|
|------------------------------------------------|
|------------------------------------------------|
|------------------------------------------------|
|------------------------------------------------|
2nd
same timing as above
|----------------------------------------------|
|----------------------------------------------|
|----------------------------------------------|
|9-9-9--11-9--7--------------------------------|
|7-7-7--9--7--5--------------------------------|
|7-7-7--9--7--5--------------------------------|
comments
We did not receive enough feedback on this tab! Please rate:
print report bad tab
1 2 3 4 5
1 comment total.
0 reply
amblildude123 wrote on January 26 2008, 09:26 pm

too easy

I want to post or [tab]
guest
You may want to rate the tab now too:
select rating
Please do not post tabs as comments. Select "correction" instead!