Oops, an error
Loading. Please wait.

Hanging By A Moment Chords

version 6
version 6
5,506 views 3 this week
no commentswrite comment
1 2 3 4 5
please rate
add to favorites
launch autoscroll
font size
0
reset
transpose
0
reset
display chords
guitar tuner
Tab Pro tools
  • play this tab
  • loop segment
  • change instrument
  • show fretboard
  • metronome
×
Best way to learn
"Hanging By A Moment"
Autoscroll
slow
fast
+/-
esc
set tempo
stop
Contributor
Difficulty
intermediate
Alright I know there are a lot of tabs for this song and they are all close but I have 
played all of them and I think they are wrong. If you have been looking for the correct 
tab then your search is over

=>NOTE THE DIFFERENT TUNING<=

   G#        F#      A#       C#
e---------------------------------|
b---------------------------------|
g---------------------------------|
C#--7--------5--------9--------0--|
G#--7--------5--------9--------0--|
C#--7--------5--------9--------0--|

<> = harmonic
h  = hammer on
b  = bend
su = slide up
sd = slide down
~  = tremolo


({(INTRO)})

e--------------------------------------|
B--------------------------------------|
G--------------------------------------|
C#------0-2-0----------0---5-4-0-------|
G#----0---------0----0---0-------0-----|
C#--0---------0----0-------------------| 2X



({(VERSE 1)})

e--------------------------------------|
B--------------------------------------|
G--------------------------------------|
C#------0-2-0----------0---5-4-0-------|
G#----0---------0----0---0-------0-----|
C#--0---------0----0-------------------| 3X

e--------------------------------------|
B--------------------------------------|
G--------------------------------------|
C#------0-2-0--------<7>---------------|
G#----0--------------------------------|
C#--0------------0---------------------|


e------1-------------1---2-1-----------1-------------1-------------|
B--2-4---2-4-2---2-4---2-----4-2---2-4---2-4-2---2-4---2-----------|
G------------------------------------------------------------------|
C#-----------------------------------------------------------------|
G#-----------------------------------------------------------------|
C#-----------------------------------------------------------------|

e--------------------------------------|
B--------------------------------------|
G--------------------------------------|
C#------0-2-0----------0---5-4-0-------|
G#----0---------0----0---0-------0-----|
C#--0---------0----0-------------------| 6X



({(CHORUS)})

                  G#           F#   A#
I'm falling even more in love with you
               G#       F#
Letting go of all I've held onto
                   G#            F#  A#
I'm standing here until you make me move
                  G#          F#
I'm hanging by a moment here with you
                    G#        F# A#
I'm living for the only thing I know
                     G#              F#
I'm running and not quite sure where to go
                       G#        F# A#
And I don't know what I'm diving into
                   G#          F#
Just hanging by a moment here with you



({(BRIDGE)})

There's nothing else to lose
e--------------------------------------------------------|
B--------------------------------------------------------|
G--------------------------------------------------------|
C#-------------------------------------------------------|
G#----------------------------5------5------5------5-----|
C#------------------------4h5----4h5----4h5----4h5-------|

There's nothing else to find
e----------------------------------------|
B-------------------------------4b--0--7-|
G----------------------------------------|
C#---------------------------------------|
G#---------------------------------------|
C#---------------------------------------|

There's nothing in the world
e--------------------------------------------------------|
B--------------------------------------------------------|
G--------------------------------------------------------|
C#-------------------------------------------------------|
G#----------------------------5------5------5------5-----|
C#------------------------4h5----4h5----4h5----4h5-------|

That can change my mind
e--------------------------------------------------------|
B--------------------------------------------------------|
G--------------------------------------------------------|
C#-------------------------------------------------------|
G#----------------------9-9-9-9-9-9-9-9-9-9-9-9-9-9-9----|
C#----------------------9-9-9-9-9-9-9-9-9-9-9-9-9-9-9----|

There is nothing ellllllllllllllllse
e------------------------6-4----------------|
B------------------4-6-4-----7-4su6--6-4----|
G----------------------------------------3-1|
C#------------------------------------------|
G#------------------------------------------|
C#------------------------------------------|

There is nothing ellllllllllllllllse
e---------------------------------------|
B------------------6-4----------6-4-----|
G----------------------3-1-3-6------3-1-|
C#--------------------------------------|
G#--------------------------------------|
C#--------------------------------------|

There is nothing else
e-------------------------------------------|
B---------------------6-4-7-6-4-6-----------|
G---------------------------------3~~~~-----|
C#------------------------------------------|
G#------------------------------------------|
C#------------------------------------------|



({(VERSE 2)})

e--------------------------------------|
B--------------------------------------|
G--------------------------------------|
C#------0-2-0----------0---5-4-0-------|
G#----0---------0----0---0-------0-----|
C#--0---------0----0-------------------| 5X

e--------------------------------------|
B--------------------------------------|
G--------------------------------------|
C#------0-2-0----------0---5-4-0-------|
G#----0---------0----0---0-------0-----|
C#--0---------0----0-----------------0-|



({(CHORUS)})

                  G#           F#   A#
I'm falling even more in love with you
               G#       F#
Letting go of all I've held onto
                   G#            F#  A#
I'm standing here until you make me move
                  G#          F#
I'm hanging by a moment here with you
                    G#        F# A#
I'm living for the only thing I know
                     G#              F#
I'm running and not quite sure where to go
                       G#        F# A#
And I don't know what I'm diving into
                   G#          F#
Just hanging by a moment here with you
                   A#           G#   A#
Just hanging by a moment (here with you)
              A#           G#   C#
Hanging by a moment (here with you)
              A#           G#   A#
Hanging by a moment (here with you)
              A#          G#   C#
Hanging by a moment here with you
comments
We did not receive enough feedback on this tab! Please rate:
print report bad tab
1 2 3 4 5
I want to post or [tab]
guest
You may want to rate the tab now too:
select rating
Please do not post tabs as comments. Select "correction" instead!