Oops, an error
Loading. Please wait.

My Precious Bass Tab

7 views 3 this week
no commentswrite comment
1 2 3 4 5
3 more votes to show rating
add to favorites
launch autoscroll
font size
0
reset
guitar tuner
Autoscroll
slow
fast
+/-
esc
set tempo
stop
Help us to improve Ultimate-Guitar.com Take our survey!
×
Author
Difficulty
Tuning
intermediate
B E A D F# B
About this tab version
Initial bass version. All of the song is covered. Was this info helpful? Yes No
Song:      Lifehouse - "My Precious"
           From "Stanley Climbfall" album
Tuning:    5 string bass standard
Tabbed by: jjhand 


This song is mostly whole notes but that still sets the mood in the 
song. Please rate or comment.

[Intro] - play 2x
G|----------------|----------------|---------------|--------------|
D|----------------|----------------|---------------|--------------|
A|----------------|----------------|---------------|--------------|
E|----------------|----------------|---------------|--------------|
B|-7--------------|-5--------------|-7-------------|-5------------|



[Verse 1]
G|----------------|----------------|---------------|--------------|
D|----------------|----------------|---------------|--------------|
A|----------------|----------------|---------------|--------------|
E|----------------|----------------|---------------|--------------|
B|-7--------------|-5--------------|-7-------------|-5------------|
   "Can't hold you down               Can   I be    you"

G|----------------|----------------|---------------|--------------|
D|----------------|----------------|---------------|--------------|
A|----------------|----------------|---------------|--------------|
E|----------------|----------------|---------------|--------------|
B|-7--------------|-5--------------|-4-------------|-0------------|
  "There's nothing I can do         A slave to your hands"

[Chorus 1]
G|----------------|----------------|---------------|--------------|
D|----------------|----------------|---------------|--------------|
A|----------------|----------------|---------------|--------------|
E|----------------|----------------|---------------|-7------------|
B|-7--------------|-5--------------|-4-------------|--------------|
  "Climb   up  above                 Your precious time"

G|----------------|----------------|---------------|--------------|
D|----------------|----------------|---------------|--------------|
A|----------------|----------------|---------------|--------------|
E|-4--------------|-7--------------|-4-------------|-7------------|
B|----------------|----------------|---------------|--------------|
  "Don't worry your time            Don't hurry your mind"



[Verse Break]
G|----------------|----------------|---------------|--------------|
D|----------------|----------------|---------------|--------------|
A|----------------|----------------|---------------|--------------|
E|----------------|----------------|---------------|--------------|
B|-7--------------|-5--------------|-7-------------|-5------------|



[Verse 2]
G|----------------|----------------|---------------|--------------|
D|----------------|----------------|---------------|--------------|
A|----------------|----------------|---------------|--------------|
E|----------------|----------------|---------------|--------------|
B|-7--------------|-5--------------|-7-------------|-5------------|
  "Where  did  you go                Where  did  you hide"

G|----------------|----------------|---------------|--------------|
D|----------------|----------------|---------------|--------------|
A|----------------|----------------|---------------|--------------|
E|----------------|----------------|---------------|--------------|
B|-7--------------|-5--------------|-4-------------|-0------------|
     "All I   can  do               Is watch you pass by"



[Chorus 2]
G|----------------|----------------|---------------|--------------|
D|----------------|----------------|---------------|--------------|
A|----------------|----------------|---------------|--------------|
E|----------------|----------------|---------------|--------------|
B|-7--------------|-5--------------|-4-------------|-0------------|
  "Climb   up  above                 Your precious time"

G|----------------|----------------|---------------|--------------|
D|----------------|----------------|---------------|--------------|
A|----------------|----------------|---------------|--------------|
E|-4--------------|-7--------------|-4-------------|-7------------|
B|----------------|----------------|---------------|--------------|
  "Don't worry your time            Don't hurry your mind"



[Bridge]
G|-----------------------------|-----------------------------|
D|-----------------------------|-----------------------------|
A|-4---------------------------|-2---------------------------|
E|-----------------------------|-----------------------------|
B|-----------------------------|---------------------------2-|
 "Every time I try to take it back I know I don't wanna live like 


G|-------------------------|------------------------|
D|-------------------------|------------------------|
A|-------------------------|------------------------|
E|-------------------------|-4----------------4--2--|
B|-4-----------------------|------------------------|
 "that, I'll wait for tomorrow"


G|-------------------------|---------------------------|
D|-------------------------|------------------------4--|
A|-------------------------|-2-------------------------|
E|----------------------2--|---------------------------|
B|-2-----------------------|---------------------------|
 "Too tired to go the other way  Too late to wait another"

G|-------------------|---------------------|
D|-------------------|---------------------|
A|-------------------|---------------------|
E|-----------------2-|-4-------------------|
B|-4-----------------|---------------------|
   "day,    I'm going on"


[Ending]
G|----------------|----------------|---------------|--------------|
D|----------------|----------------|---------------|--------------|
A|----------------|----------------|---------------|--------------|
E|----------------|----------------|---------------|--------------|
B|-7--------------|-5--------------|-4-------------|-0------------|
  "Climb   up  above                 Your precious time"

G|----------------|----------------|---------------|--------------|
D|----------------|----------------|---------------|--------------|
A|----------------|----------------|---------------|--------------|
E|-4--------------|-7--------------|-4-------------|-7------------|
B|----------------|----------------|---------------|--------------|
  "Don't worry your time            Don't hurry your mind"

G|----------------|----------------|---------------|--------------|
D|----------------|----------------|---------------|--------------|
A|----------------|----------------|---------------|--------------|
E|----------------|----------------|---------------|--------------|
B|-7--------------|-5--------------|-4-------------|-0------------|
  "Climb   up  above                 Your precious time"

G|----------------|----------------|---------------|--------------|
D|----------------|----------------|---------------|--------------|
A|----------------|----------------|---------------|--------------|
E|-4--------------|-7--------------|-4-------------|-7------------|
B|----------------|----------------|---------------|--------------|
  "Don't worry your time            Don't hurry your mind"


[Ending]
G|----------------|----------------|---------------|--------------|
D|----------------|----------------|---------------|--------------|
A|----------------|----------------|---------------|--------------|
E|----------------|----------------|---------------|--------------|
B|-7--------------|-5--------------|-7-------------|-5------------|

G|----------------|----------------|---------------|--------------|
D|----------------|----------------|---------------|--------------|
A|----------------|----------------|---------------|--------------|
E|----------------|----------------|---------------|--------------|
B|-7--------------|-5--------------|-4-------------|-5------------|


Key:
*****************************
| /  slide up
| \  slide down
| h  hammer-on
| p  pull-off
| ~  vibrato
| +  harmonic
| x  Mute note
*****************************
Suggest correction
Give kudos to tab author, rate the tab!
1 2 3 4 5
comments
print report bad tab
guest
You may want to rate the tab now too:
select rating
Wanna post a correction for this tab? Suggest correction