Oops, an error
Loading. Please wait.

Out Of Breath Bass Tab

1 view 1 this week
no commentswrite comment
1 2 3 4 5
3 more votes to show rating
add to favorites
launch autoscroll
font size
0
reset
guitar tuner
Autoscroll
slow
fast
+/-
esc
set tempo
stop
Help us to improve Ultimate-Guitar.com Take our survey!
×
Author
Difficulty
intermediate
About this tab version
First bass tab. Completely covers all sections of song. Was this info helpful? Yes No
Artist:    Lifehouse
Song:      Out of Breath
Tuning:    Standard Bass arrangement (5 string bass in recording)
Tabbed by: jjhand 



[Intro] 
G|-----------------|--------------------|-----------------|---------------------|
D|-----------------|--------------------|-----------------|---------------------|
A|-----------------|-------11-11-11-9p8-|-----------------|--------11-11-11-9p8-|
E|-9-9-9-9-9-9-9-9-|-9-9-9--------------|-9-9-9-9-9-9-9-9-|-9-9-9---------------|

G|-----------------|--------------------|-----------------|-------------------|
D|-----------------|--------------------|-----------------|-------------------|
A|-----------------|-------11-11-11-9p8-|-----------------|-------------------|
E|-9-9-9-9-9-9-9-9-|-9-9-9--------------|-9-9-9-9-9-9-9-9-|-9-9-9-9-4-4-6-6-9-|


[Verse]
G|-----------------|--------------------|-----------------|---------------------|
D|-----------------|--------------------|-----------------|---------------------|
A|-----------------|-------11-11-11-9p8-|-----------------|--------11-11-11-9p8-|
E|-9-9-9-9-9-9-9-9-|-9-9-9--------------|-9-9-9-9-9-9-9-9-|-9-9-9---------------| 
  "I still feel the same               Though everything has changed"

G|-----------------|--------------------|-----------------|------------------|
D|-----------------|--------------------|-----------------|------------------|
A|-----------------|-------11-11-11-9p8-|-----------------|------------------|
E|-9-9-9-9-9-9-9-9-|-9-9-9--------------|-9-9-9-9-9-9-9-9-|-9-9-9-9-9-9-9-9\-|
 "The pain it cost now I feel lost inside of my own name,         but I keep"


[Chorus]
G|-----------------|-----------------|-----------------|-----------------|
D|-----------------|-----------------|-----------------|-----------------|
A|-----------------|-----------------|-4-4-4-4-4-4-4-4-|-4-4-4-4-4-4-4-4-|
E|-2-2-2-2-2-2-2-2-|-2-2-2-2-2-2-2-4-|-----------------|-----------------|
   "burning                     I am burning                      I keep" 

G|-----------------|-----------------|-----------------|--------------------|
D|-----------------|-----------------|-----------------|--------------------|
A|-----------------|-----------------|-6-6-6-6-6-6-6-6-|-6------------9-8---|
E|-6-6-6-6-6-6-6-6-|-4-4-4-4-4-4-4-4-|-----------------|------------------4-|
  "living for the day that I'm with you                     That I'm with you"

G|-----------------|--------------------|-----------------|---------------------|
D|-----------------|--------------------|-----------------|---------------------|
A|-----------------|-------11-11-11-9p8-|-----------------|--------11-11-11-9p8-|
E|-9-9-9-9-9-9-9-9-|-9-9-9--------------|-9-9-9-9-9-9-9-9-|-9-9-9---------------|


[Verse 2] - Play Verse Riff, Lyrics:

  "The past has left it's stain
   Now I feel the shame
   I'll seize the day
   If you take away
   The chains of yesterday"


[Chorus 2]
G|-----------------|-----------------|-----------------|-----------------|
D|-----------------|-----------------|-----------------|-----------------|
A|-----------------|-----------------|-4-4-4-4-4-4-4-4-|-4-4-4-4-4-4-4-4-|
E|-2-2-2-2-2-2-2-2-|-2-2-2-2-2-2-2-4-|-----------------|-----------------|
"But I keep running              I am running                    I keep" 

G|-----------------|-----------------|-----------------|-----------------|
D|-----------------|-----------------|-----------------|-----------------|
A|-----------------|-----------------|-6-6-6-6-6-6-6-6-|-6-6-6-6-6-6-6-6-|
E|-6-6-6-6-6-6-6-6-|-4-4-4-4-4-4-4-4-|-----------------|-----------------|
    "living for the day that I'm with you                       And I am" 

G|-----------------|-----------------|-----------------|-----------------|
D|-----------------|-----------------|-----------------|-----------------|
A|-----------------|-----------------|-4-4-4-4-4-4-4-4-|-4-4-4-4-4-4-4-4-|
E|-2-2-2-2-2-2-2-2-|-2-2-2-2-2-2-2-4-|-----------------|-----------------|
  "waiting                       I am waiting                     I keep" 

G|-----------------|-----------------|-----------------|-----------------|
D|-----------------|-----------------|-----------------|-----------------|
A|-----------------|-----------------|-6-6-6-6-6-6-6-6-|-6-6-6-6-6-6-6-6-|
E|-6-6-6-6-6-6-6-6-|-4-4-4-4-4-4-4-4-|-----------------|-----------------|
   "waiting for the day that I'm with you"



[Bridge]
G|------------------|------------------|------------------|------------------|
D|------------------|------------------|------------------|------------------|
A|------------------|------------------|-6-6-6--4h6-6-6-6-|-6-6-6--4h6-6-6---|
E|-6-6-6--4h6-6-6-6-|-6-6-6--4h6-6-6-4-|------------------|----------------4-|
  "A new day     The sun is shining       Seems I'm closer to finding"

G|------------------|------------------|------------------|------------------|
D|------------------|------------------|------------------|------------------|
A|------------------|------------------|-6-6-6--4h6-6-6-6-|-6-6-6--4h6-6-6---|
E|-6-6-6--4h6-6-6-6-|-6-6-6--4h6-4-4-4-|------------------|----------------1-|
  "That life is more than where we are"

G|-----------------|-----------------|------------------|------------------|
D|-----------------|-4-----4---------|------------------|------------------|
A|-----------------|-----------4-4-4-|------------------|------------------|
E|-2-2-2-1/2-2-2---|-----------------|-6-6-6--4h6-6-6-6-|-6-6-6--4h6-4-4-4-|
        "No way that I am turning       As long as the sun is burning"

G|------------------|------------------|------------------|-------------------|
D|------------------|------------------|------------------|-------------------|
A|-6-6-6--4h6-6-6-6-|-6-6-6--4h6-6-6-4-|------------------|---9-9-9-9/11-9/11-|
E|------------------|------------------|-2-2-2---2-2-2----|-------------------|
  "Now it seems that all   I    want is you"



[Final Verse] - Play Verse Riff, Lyrics:

  "I still feel the same
   Though everything has changed
   The pain it cost now
   I feel lost inside of my own name"



[Final Chorus] - Play Chorus 2 Riff, Lyrics:

  "But I keep running
   I am running
   I keep living for the day that I'm with you
   And I am waiting
   I am waiting
   I keep waiting for the day that I'm with you
   That I'm with you"



[Ending]
G|-----------------|--------------------|-----------------|---------------------|
D|-----------------|--------------------|-----------------|---------------------|
A|-----------------|-------11-11-11-9p8-|-----------------|--------11-11-11-9p8-|
E|-9-9-9-9-9-9-9-9-|-9-9-9--------------|-9-9-9-9-9-9-9-9-|-9-9-9---------------|


G|-----------------|--------------------|-----------------|------------------|
D|-----------------|--------------------|-----------------|------------------|
A|-----------------|-------11-11-11-9p8-|-----------------|------------------|
E|-9-9-9-9-9-9-9-9-|-9-9-9--------------|-9-9-9-9-9-9-9-9-|-9----------------|

***************************
Key:
| /  slide up
| \  slide down
| h  hammer-on
| p  pull-off

***************************







 
Suggest correction
Give kudos to tab author, rate the tab!
1 2 3 4 5
comments
print report bad tab
guest
You may want to rate the tab now too:
select rating
Wanna post a correction for this tab? Suggest correction