Oops, an error
Loading. Please wait.

Sick Cycle Carousel Tab

version 1
version 1

Intro

Whole song

Interactive

6,777 views 1 this week
2 commentsread comments
1 2 3 4 5
accurate
x 7
add to favorites
launch autoscroll
font size
0
reset
how to read this tab
guitar tuner
Autoscroll
slow
fast
+/-
esc
set tempo
stop
Help us to improve Ultimate-Guitar.com Take our survey!
×
Author
Lifehouse - Sick Cycle Carousel
Sick Cycle Carousel

|E|-------------------------|----------------------
|B|-------------------------|----------------------
|G|-------------------4-0---|----------------------
|D|-----3-2-2-0-0---2-----3-|----------------------
|A|---3-----------3-0-------|----------------------
|E|-1-------3---------------|----------------------

|E|------------------------------------------------
|B|------------------------------------------------
|G|-----------------------------0------------------
|D|-----3-2-2-0-0---2-4s5s4-0-2---3----------------
|A|---3-----------3-0------------------------------
|E|-1-------3--------------------------------------
Suggest correction
comments
print report bad tab
2 comments total.
0 reply
gocaps99 102 wrote on July 12 2002, 12:00 am

The tuning should be 1/2 step down and
in the second line, it should be

0h1p0 on Bb,
then 0 on Gb,
2 on Db,
0 on Gb,
3 on Db(2x)

0 reply
Conner300 10 wrote on November 5 2002, 12:00 am

Eb|--------------------------|
Bb|---------------------0----|
Gb|-------------------0---0--|
Db|---3-2-2-0-0-----2-------3|
Ab|--3----------3-0----------|
Eb|-1-----3------------------|


Eb|--------------------------------|
Bb|-------------------0h1p0--------|
Gb|-------------------------0---0--|
Db|---3-2-2-0-0-----2---------2---3|
Ab|--3----------3-0----------------|
Eb|-1-----3------------------------|

guest
You may want to rate the tab now too:
select rating
Please do not post tabs as comments. Select "correction" instead!