Oops, an error
Loading. Please wait.

Sick Cycle Carousel Bass

version 2
version 2

Whole song

  • Improved on the initial tab, added in measures for... Show more

Interactive

31 views 1 this week
no commentswrite comment
1 2 3 4 5
2 more votes to show rating
add to favorites
launch autoscroll
font size
0
reset
guitar tuner
Autoscroll
slow
fast
+/-
esc
set tempo
stop
Author
Difficulty
intermediate
About this tab version
Improved on the initial tab, added in measures for timing and labeled all sections. Was this info helpful? Yes No
Song:      Lifehouse - "Sick Cycle Carousel"
Tuning:    standard (performed on 5 string but transposed for 4 string)
Tabbed by: jjhand 



[Prechorus] (0:31)
G|-------------|-------------|-------------|-------------|
D|-------------|-------------|-------------|------4-4----|
A|-------6-6---|-7-----------|-------6-6---|-7-----------|
E|-4-----------|-------7--6--|--4----------|-----------2-|
    
G|-------------|-------------|-------------|-------------|
D|-------------|-------------|-------------|------4-4----|
A|-------6-6---|-7-----------|-------6-6---|-7-----------|
E|-4-----------|-------7--6--|--4----------|-------------|

                                                                          
Chorus
G|---------------|---------------|---------------|--------------|
D|---------------|---------------|---------------|--------------|
A|-2-----2-2---4-|---------------|-4-----4-6-7-6-|------------1-|
E|-----2---------|-2-----2-2---4-|---------------|-4-----2-4----|

G|---------------|---------------|---------------|--------------|
D|---------------|---------------|---------------|--------------|
A|-2-----2-2---4-|---------------|-4-----4-6-7-6-|--------------|
E|-----2---------|-2-----2-2---4-|---------------|-4-----2-4--7-|
                                                                              

[Pre-Verse]
G|---------------|------------------|-------------|------------------|
D|---------------|------------------|-------------|------------------|
A|---------------|11-----13---------|-------------|-11---/14-13------|
E|-12----14-14---|--11-14----14--11-|-12----14----|------------14-11-|
                                                                              


[Verse 2]
G|--------------|-------------------|-------------|------------------|
D|--------------|-------------------|-------------|------------------|
A|--------------|-11-----13---------|-------------|-11---/14-13------|
E|-12----14-14--|---11-14----14--11-|-12----14----|------------14-11-|

G|--------------|-------------------|--------------|---------------|
D|--------------|-------------------|--------------|---------------|
A|--------------|-11-----13---------|--------------|---------------|
E|-12----14-14--|---11-14----14--11-|-12--------14-|-11------------|


[Prechorus 2] - Play Prechorus riff from above

[Chorus 2]
G|---------------|---------------|---------------|--------------|
D|---------------|---------------|---------------|--------------|
A|-2-----2-2---4-|---------------|-4-----4-6-7-6-|------------1-|
E|-----2---------|-2-----2-2---4-|---------------|-4-----2-4----|

G|--------------|---------------|---------------|--------------|
D|--------------|---------------|---------------|--------------|
A|-2-----2-2--4-|---------------|-4-----4-6-7-6-|-7-----7---/9-|
E|-----2--------|-2-----2-2---4-|---------------|--------------|

G|--------------|--------------|-------------|-----------------|
D|--------------|--------------|-------------|-----------------|
A|-------6-6----|-7-7----------|-------6-6---|-7-6-4-2-4-2-----|
E|-4------------|--------7--6--|-4-----------|-------------2-3-|

G|-------------|--------------|-------------|---------------|------------|
D|-------------|--------------|-------------|---------------|------------|
A|-------6-6---|-7-7----------|-------6-6---|-7--7-7----9-7-|-6----------|
E|-4-----------|-------7--6h7-|-4-4---------|---------------|------------|


[Guitar Solo]
G|--------------|-------------------|-------------|------------------|
D|--------------|-------------------|-------------|------------------|
A|--------------|-11-----13---------|-------------|-11---/14-13------|
E|-12----14-14--|---11-14----14--11-|-12----14----|------------14-11-|

G|--------------|-------------------|----------------|------------|
D|--------------|-------------------|----------------|------------|
A|--------------|-11-----13---------|----------------|------------|
E|-12----14-14--|---11-14----14--11-|-12------/14-12-|-11---------|


[Final Chorus]
G|---------------|---------------|---------------|--------------|
D|---------------|---------------|---------------|--------------|
A|-2-----2-2---4-|---------------|-4-----4-6-7-6-|------------1-|
E|-----2---------|-2-----2-2---4-|---------------|-4-----2-4----|

G|---------------|---------------|--------------|----------------|
D|---------------|---------------|--------------|----------------|
A|-2-----2-2---4-|---------------|-4-----4-4--6-|----------------|
E|---------------|-2-----2-2---4-|--------------|-4------2-4---2-|

G|---------------|---------------|---------------|--------------|
D|---------------|---------------|---------------|-6-----4-6----|
A|-2-----2-2---4-|---------------|-4-----4-6-7-6-|------------6-| 
E|-----2---------|-2-----2-2---4-|---------------|--------------|

G|---------------|---------------|---------------|---------------|
D|---------------|---------------|---------------|-6------4-6----| 
A|-2-----2-2---4-|---------------|-4-----4-4---6-|---------------| 
E|-----2---------|-2-----2-2---4-|---------------|---------------|

G|---------------|---------------|---------------|--------------|
D|---------------|---------------|---------------|-------4-6----|
A|-2-----2-2---4-|---------------|-4-----4-6-7-6-|------------6-| 
E|-----2---------|-2-----2-2---4-|---------------|-4------------|

fade out


************************
Key:
| /  slide up
| \  slide down
| h  hammer-on
| p  pull-off
************************


Suggest correction
Give kudos to tab author, rate the tab!
1 2 3 4 5
comments
print report bad tab
guest
You may want to rate the tab now too:
select rating
Wanna post a correction for this tab? Suggest correction