Oops, an error
Loading. Please wait.

Sick Cycle Carousel tab

version 5
version 5

Whole song

Interactive

1,302 views 1 this week
1 commentread comment
1 2 3 4 5
1 last vote to show rating
add to favorites
×
Save as Personal and add changes to this tab that will be seen only by you. Learn more ›
×
You can save this tab as Personal to edit and correct it or add notes. All changes will be seen only by you. Learn more »
launch autoscroll
font size
0
reset
how to read this tab
guitar tuner
edit
Autoscroll
slow
fast
+/-
esc
set tempo
stop
Guitar 1: Acoustic
Guitar 2: Electric

Intro: Guitar 1

e------------------------------------------------------------------|
b-----------------------0---------------------------0h1p0----------|
g---------------------0-----0-----------------------------0----0---|
d-----3-2-2-0-0-----2---------3-----3-2-2-0-0-----2---------2----3-|
a---3-----------3-0---------------3-----------3-0------------------|
e-1-------3---------------------1-------3--------------------------|

If shame had a face I think it
would kind of look like mine
If it had a home would it be my eyes

e-----------------------------------------------0~----------------|
b-----------------------0-----------------------0~----------------|
g---------------------0-----0-------------------0~----------------|
d-----3-2-2-0-0-----2---------3-----3-------3---2~----------------|
a---3-----------3-0---------------3---3---3---3-2~----------------|
e-1-------3---------------------1-------1-------0~----------------|

Would you believe me if I said I'm tired of this
Well here we go now one more time

Pre-chorus: Guitar 1

Am (-02210)
Em (022000)
F  (133211)
C  (-32010)
C/B(-22010)
G  (320033)

Am	   Em          F
I tried to climb your steps
	C	C/B
I tried to chase you down
Am	   Em	     F		            G
I tried to see how low I could get it down to the ground
Am	    Em      F
I tried to earn my way
	    C	   C/D
I tried to tame this mind
Am 	    Em 	          F	      G
You better believe that I tried to beat this

Pre Chorus: Guitar 2 Light Distortion

e-----------------------------------------------------------------|
b-3/5---5---3/5----5--------3/5-5-8/10-------5--------------------|
g-----------------------------------------------------------------|
d-----------------------------------------------------------------|
a-----------------------------------------------------------------|
e-----------------------------------------------------------------|

e-----------------------------------------------------------------|
b-3/5---5---3/5----5-------12-—--12----10----8--------------------|
g-----------------------------------------------------------------|
d-----------------------------------------------------------------|
a-----------------------------------------------------------------|
e-----------------------------------------------------------------|

Chorus: Guitar 1

C  (-32010)
G  (320033)
D  (--0232)
Am (-02210)

C		   G                  D
So when will this end it goes on and on
	   Am
Over and over and over again
C		G		           D
Keep spinning around I know that it won't stop
	     Am
Till I step down from this for good

Chorus: Guitar 2 Light Distortion
(impossible to tell by ear - I play this, sounds ok)

e---------0----------------3----------------3-2--------------0-------|
b-----------1---1------------3---3------3-------3--------------1---1-|
g-----0-------0--------0-------0------2---2-------2------2-------0---|
d---2---2------------0---0----------0------------------2---2---------|
a-3----------------2---------------------------------0---------------|
e--------------------------------------------------------------------|

Interlude: Guitar 1

F  (133211)
G  (320033)
Am (-02210)

Interlude: Guitar 2 Distortion

e------------------------------------------------------------------|
b------------------------------------------------------------------|
g-----10-10/9—-9-/7--7-/5-/9---/16---/12---------------------------|
d-----x--x--x--x--x--x--x--x----x-----x----------------------------|
a-----8--8-/7--7-/5--5-/3-/7---/14---/10---------------------------|
e------------------------------------------------------------------|

e------------------------------------------------------------------|
b------------------------------------------------------------------|
g-----10-10/9—-9-/7--7-/5-/9---------------------------------------|
d-----x--x--x--x--x--x--x--x---------------------------------------|
a-----8--8-/7--7-/5--5-/3-/7---------------------------------------|
e------------------------------------------------------------------|

Verse: Guitar 1

F  (133211)
G  (320033)
Am (-02210)
Em (022000)

F	G	           Am
I never thought I'd end up here, never
F 	G		       Am
Thought I'd be standing where I am
F		            G	       Am
I guess I kinda thought it would be easier than this
F 		Em
I guess I was wrong now one more time

Verse: Guitar 2 (Not on album, but played live) Light Distortion
* = palm mute

e-------------------------------------------------------------------|
b-------------------------1----------------------------0h1p0--------|
g-------------------2-2-0---0----------------------2-2------0---0---|
d-3-3-3-x--5-5-5-x--2-2-------3--3-3-3-x--5-5-5-x--2-2--------2---3-|
a-3-3-3-x--5-5-5-x--0-0----------3-3-3-x--5-5-5-x--0-0--------------|
e-1-1-1-x--3-3-3-x---------------1-1-1-x--3-3-3-x-------------------|
  * *      * *      * *          * *      * *      * *

e------------------------------------------------------------------|
b-------------------------1----------------------------------------|
g-------------------2-2-0---0--------------------------------------|
d-3-3-3-x--5-5-5-x--2-2-------3--3-3-3-x—-3-3-3-x--2-2-2-x-2-2-2-2-|
a-3-3-3-x--5-5-5-x--0-0----------3-3-3-x--3-3-3-x--2-2-2-x-2-2-2-2-|
e-1-1-1-x--3-3-3-x---------------1-1-1-x--1-1-1-x--0-0-0-x-0-0-0-0-|
  * *      * *      * *          * *      * *      * *

Repeat Pre-chorus & Chorus

Bridge: Guitar 1

Am (-02210)
Em (022000)
F  (133211)
C  (-32010)
C/B(-22010)
G  (320033)

Am   Em	    F    C
Sick cycle carousel
C/B       Am   Em     F    G
This is a sick cycle carousel
Am   Em    F      C
Sick cycle carousel
C/B        Am   Em     F      G
This is a sick cycle, Car-ou-sel

Bridge: Guitar 2 Light Distortion

e-----------------------------------------------------------------|
b-----------------------------------------------------------------|
g-----------------9---9---9---9--10--10--10--10---7---7---9---9---|
d-7---7---7---7---9---9---9---9--10--10--10--10---x---x---x---x---|
a-7---7---7---7---7---7---7---7---8---8---8---8---5---5---7---7---|
e-5---5---5---5---------------------------------------------------|

Solo: Guitar 1 Chords

F  (133211)
G  (320033)
Am (-02210)
First 3 Times

F  (133211)
Em (022000)
Last Time

e------------------------------------------------------------------|
b------------------------------------------------------------------|
g-----10-10/9—-9-/7--7-/5-/9---/16---/12---------------------------|
d-----x--x--x--x--x--x--x--x----x-----x----------------------------|
a-----8--8-/7--7-/5--5-/3-/7---/14---/10---------------------------|
e------------------------------------------------------------------|

e------------------------------------------------------------------|
b------------------------------------------------------------------|
g-----10-10/9—-9-/7--7-/5-/9---------------------------------------|
d-----x--x--x--x--x--x--x--x---------------------------------------|
a-----8--8-/7--7-/5--5-/3-/7---------------------------------------|
e------------------------------------------------------------------|

e------------------------------------------------------------------|
b------------------------------------------------------------------|
g-----10-10/9—-9-/7--7-/5-/9---/16---/12---------------------------|
d-----x--x--x--x--x--x--x--x----x-----x----------------------------|
a-----8--8-/7--7-/5--5-/3-/7---/14---/10---------------------------|
e------------------------------------------------------------------|

e------------------------------------------------------------------|
b------------------------------------------------------------------|
g-----10-10-10-10-10-10-12-12-9------------------------------------|
d-----x--x--x--x--x--x--x--x--x------------------------------------|
a-----8--8--8--8--8--8--10-10-7------------------------------------|
e------------------------------------------------------------------|

Repeat  Chorus

Outro:

C          G
Sick cycle carousel
D          Am
Sick cycle carousel
C          G
Sick cycle carousel
D          Am
Sick cycle carousel

            
            
Suggest correction
Creating personal tab
Creating personal tab
You can edit any tab online and save it as your Personal.

You can edit, replace or remove any tab part or add personal notes – all changes will be seen only by you.

Personal tabs can be accessed anytime from any device, even offline.
Learn more »
Give kudos to tab author, rate the tab!
1 2 3 4 5
comments
print report bad tab
1 comment total.
0 reply
EdMcMan 41 Jul 14, 2005 08:00 PM

Chords could use some work

guest
You may want to rate the tab now too:
select rating
Wanna post a correction for this tab? Suggest correction