Oops, an error
Loading. Please wait.

Sky Is Falling Bass Tab

85 views 3 this week
1 commentread comment
1 2 3 4 5
please rate
add to favorites
launch autoscroll
font size
0
reset
guitar tuner
Autoscroll
slow
fast
+/-
esc
set tempo
stop
Help us to improve Ultimate-Guitar.com Take our survey!
×
The Sky is Falling-Lifehouse
-------------------------------------------------------------------------------
Tabbed by:  Mike Kunz
E-mail: rmjk21@embarqmail.com

Tuning: Standard

  intro
G|----------------|--------------|-------------|----------------|
D|----------------|--------------|-------------|----------------|
A|-6-6-6-6-6-6-6--|-4-4-4-4-4-4--|-3-3-3-3-3-3-|-2-2-2-2-2-2-2--|
E|----------------|--------------|-------------|----------------|
  verse
G|----------------|--------------|-------------|------------------|
D|----------------|--------------|-------------|------------------|
A|-6-6-6-6-6-6-6-|-4-4-4-4-4-4--|-3-3-3-3-3-3--2-2-2-2-2-2-2------|
E|----------------|--------------|-------------|------------------|

G|----------------|--------------|-------------|----------------|
D|----------------|--------------|-------------|----------------|
A|-6-6-6-6-6-6-6--|-4-4-4-4-4-4--|-3-3-3-3-3-3-|-2-2-2-2-2-2-2--|
E|----------------|--------------|-------------|----------------|

    chorus
G|-----------|------------|-----------|-------------|-----------|-----------|---------------|
D|-----------|------------|-----------|-------------|-----------|-----------|---------------|
A|-----------|-6-6-6-6-6--|-----------|-8-8-8-8-8-8-|-----------|-----------|-13-13-13-8-6--|
E|-4-4-4-4-4-|------------|-6-6-6-6-6-|-------------|-9-9-9-9-9-|-4-4-4-4-4-|---------------|

G|-----------|------------|-----------|-------------|-----------|-----------|---------------|
D|-----------|------------|-----------|-------------|-----------|-----------|---------------|
A|-----------|-6-6-6-6-6--|-----------|-8-8-8-8-8-8-|-----------|-----------|-13-13-13-8-6--|
E|-4-4-4-4-4-|------------|-6-6-6-6-6-|-------------|-9-9-9-9-9-|-4-4-4-4-4-|---------------|

  bridge
G|----------|---------|--------|-----------|----------|---------|---------|---------|
D|----------|---------|--------|-----------|----------|---------|---------|---------|
A|----------|-4-4-4-4-|--------|-8-8-8-8-8-|----------|-4-4-4-4-|---------|-8-8-8-8-|
E|-6-6-6-6--|---------|-8-8-8-8|-----------|-6-6-6-6-6|---------|-8-8-8-8-|---------|

  guitar solo
G|---------|---------|---------|--------|---------|--------|--------|---------|--------|--------|
D|---------|---------|---------|--------|---------|--------|--------|---------|--------|--------|
A|---------|-8-8-8-8-|-4-4-4-4-|--------|---------|--------|-8-8-8-8|-4-4-4-4-|--------|--------|
E|-6-6-6-6-|---------|---------|-4-4-4-4|-6-6-6-6-|6-6-6-6-|--------|---------|4-4-4-4-|-6-6-6-6|

   outro
G|---------|---------|-------------|---------|---------|--------------|
D|---------|---------|-------------|---------|---------|--------------|
A|-4-4-4-4-|---------|13-13-13-8-6-|-4-4-4-4-|---------|-13-13-13-8-6-|
E|---------|-4-4-4-4-|-------------|---------|-4-4-4-4-|--------------|


  intro
  intro
  verse
  chorus
  verse
  chorus
  bridge
  guitar solo
  chorus
  outro
Suggest correction
Give kudos to tab author, rate the tab!
1 2 3 4 5
comments
print report bad tab
1 comment total.
0 reply
Pale_Pilgrim 703 wrote on May 31 2014, 02:57 am

All the basic needed elements are here, just takes working out some kinks. Thanks for submitting this.

guest
You may want to rate the tab now too:
select rating
Wanna post a correction for this tab? Suggest correction