Oops, an error
Loading. Please wait.

Sky Is Falling Bass Tab

version 2
version 2

Whole song

  • ver 2 new
    Fixed the rhythms in the first version and added t... Show more
7 views 7 this week
no commentswrite comment
1 2 3 4 5
3 more votes to show rating
add to favorites
launch autoscroll
font size
0
reset
guitar tuner
Autoscroll
slow
fast
+/-
esc
set tempo
stop
Help us to improve Ultimate-Guitar.com Take our survey!
×
Author
Difficulty
Tuning
intermediate
B E A D F# B
About this tab version
Fixed the rhythms in the first version and added the 5 string positions to match what was played in the recording. Was this info helpful? Yes No
Artist:    Lifehouse
Song:      Sky is Falling - album version (from 'Stanley Climbfall')
Tuning:    5 string bass
Tabbed by: jjhand



[Intro] 
G|-----------------|-----------------|-------------------8----|-----------------|
D|-----------------|-----------------|/10-10-10-10-10-10---10-|-9-9-9-9-9-9-9---|
A|-6-6-6-6-6---6---|-----------------|------------------------|-----------------|
E|-----------6---6-|-----------------|------------------------|-----------------|
B|-----------------|-2-2-2-2-2-2-2---|------------------------|-----------------|

G|-----------------|-----------------|-------------------8----|-----------------|
D|-----------------|-----------------|/10-10-10-10-10-10---10-|-9-9-9-9-9-9-9---|
A|-6-6-6-6-6---6---|-----------------|------------------------|-----------------|
E|-----------6---6-|-----------------|------------------------|-----------------|
B|-----------------|-2-2-2-2-2-2-2---|------------------------|-----------------|


[Verse 1]
G|-----------------|-----------------|-------------------8----|-----------------|
D|-----------------|-----------------|/10-10-10-10-10-10---10-|-9-9-9-9-9-9-9---|
A|-6-6-6-6-6---6---|-----------------|------------------------|-----------------|
E|-----------6---6-|-----------------|------------------------|-----------------|
B|-----------------|-2-2-2-2-2-2-2---|------------------------|-----------------|

G|-----------------|-----------------|-------------------8----|-----------------|
D|-----------------|-----------------|/10-10-10-10-10-10---10-|-9-9-9-9-9-9-9---|
A|-6-6-6-6-6---6---|-----------------|------------------------|-----------------|
E|-----------6---6-|-----------------|------------------------|-----------------|
B|-----------------|-2-2-2-2-2-2-2---|------------------------|-----------------|


[Chorus]
G|-----------------|-----------------|-----------------|-------------------|
D|-----------------|-----------------|-----------------|-------------------|
A|-----------------|-----------------|---------------6-|-8---------10-8----|
E|-4-----------4-6-|---------------4-|-6---------6-8---|----------------11-|
B|-----------4-----|-4---------4-6---|-----------------|-------------------|

G|------------------|-----------------|-7--------------|------------------|
D|------------------|-----------------|--------8-------|------------------|
A|------------------|-----------------|----------------|------------------|
E|-9-----------9-11-|-4-----------4---|----------------|-11_________\-----|
B|-----------9------|-----------4-----|----------------|---------------4/-|

G|-----------------|-----------------|-----------------|-------------------|
D|-----------------|-----------------|-----------------|-------------------|
A|-----------------|-----------------|---------------6-|-8---------10-8----|
E|-------------4-6-|---------------4-|-6---------6-8---|----------------11-|
B|-9---------4-----|-4---------4-6---|-----------------|-------------------|

G|------------------|-----------------|-7--------------|------------------|
D|------------------|-----------------|--------8-------|------------------|
A|------------------|-----------------|----------------|------------------|
E|-9-----------9-11-|-4-----------4---|----------------|-11---------------|
B|-----------9------|-----------4-----|----------------|------------------|


[Verse 2] - Play Verse Riff again


[Chorus 2]
G|-----------------|-----------------|-----------------|-------------------|
D|-----------------|-----------------|-----------------|-------------------|
A|-----------------|-----------------|---------------6-|-8-------8-10-8----|
E|-4-----------4-6-|---------------4-|-6---------6-8---|----------------11-|
B|-----------4-----|-4---------4-6---|-----------------|-------------------|

G|------------------|-----------------|-7--------------|------------------|
D|------------------|-----------------|--------8-------|------------------|
A|------------------|-----------------|----------------|------------------|
E|-9-----------9-11-|-4-----------4---|----------------|-11_________\-----|
B|-----------9------|-----------4-----|----------------|---------------4/-|

G|-----------------|-----------------|-----------------|-------------------|
D|-----------------|-----------------|-----------------|-------------------|
A|-----------------|-----------------|---------------6-|-8-------8-10-8----|
E|-------------4-6-|---------------4-|-6---------6-8---|----------------11-|
B|-9---------4-----|-4---------4-6---|-----------------|-------------------|

G|------------------|-----------------|-7--------------|------------------|
D|------------------|-----------------|--------8-------|------------------|
A|------------------|-----------------|----------------|------------------|
E|-9-----------9-11-|-4-----------4---|----------------|-11---------------|
B|-----------9------|-----------4-----|----------------|---------------4/-|



[Bridge]
G|-----------------|---------------|----------------|----------------|
D|-----------------|---------------|----------------|----------------|
A|-----------------|---------------|----------------|----------------|
E|-6-----------6-8-|-9-------------|-8-----------8/-|/13-----------8-|
B|-----------6-----|---------------|----------------|----------------|

G|-----------------|---------------|----------------|----------------|
D|-----------------|---------------|----------------|----------------|
A|-----------------|---------------|----------------|----------------|
E|-6-----------6-8-|-9-------------|-8-----------8/-|/13---------8---|
B|-----------6-----|---------------|----------------|----------6---6-|


[Guitar Solo]
G|-----------------|---------------|-----------------|----------------|
D|-----------------|---------------|-----------------|----------------|
A|-----------------|---------------|-----------------|----------------|
E|-6-----------6-9-|-------------4-|-9----------9-11-|------------4---|
B|-----------6-----|-6-------4-6---|----------9------|-9--------4---4-|

G|----------------|-----------------|-----------------|-----------------|
D|----------------|-----------------|-----------------|-----------------|
A|----------------|-8---8-----------|-----------------|-----------------|
E|-6--------------|-------------8---|-6-----------6-9-|---------------4-|
B|----------------|-----------6---6-|-----------6-----|-6---------4-6---|

G|-----------------|----------------|-----------------|-----------------|
D|-----------------|----------------|-----------------|-----------------|
A|-----------------|----------------|-----------------|---4-4-4-4---4/6-|
E|-9----------9-11-|------------4---|-6---------------|-----------------|
B|----------9------|-9--------4---4-|-----------------|-----------------|


[Final Chorus]
G|-----------------|-----------------|-----------------|-------------------|
D|-----------------|-----------------|-----------------|-------------------|
A|-----------------|-----------------|---------------6-|-8-------8-10-8----|
E|-4-----------4-6-|---------------4-|-6---------6-8---|----------------11-|
B|-----------4-----|-4---------4-6---|-----------------|-------------------|

G|------------------|-----------------|-7--------------|------------------|
D|------------------|-----------------|--------8-------|------------------|
A|------------------|-----------------|----------------|------------------|
E|-9-----------9-11-|-4-----------4---|----------------|-11_________\-----|
B|-----------9------|-----------4-----|----------------|---------------4/-|

G|-----------------|-----------------|-----------------|-------------------|
D|-----------------|-----------------|-----------------|-------------------|
A|-----------------|-----------------|---------------6-|-8-------8-10-8----|
E|-------------4-6-|---------------4-|-6---------6-8---|----------------11-|
B|-9---------4-----|-4---------4-6---|-----------------|-------------------|

G|------------------|-----------------|-7--------------|-------------------|
D|------------------|-----------------|--------8-------|-------------------|
A|------------------|-----------------|----------------|-------------------|
E|-9-----------9-11-|-4-----------4---|----------------|-11-------------11-|
B|-----------9------|-----------4-----|----------------|-------------11----|

G|------------------|-----------------|-7--------------|-------------------|
D|------------------|-----------------|--------8-------|-------------------|
A|------------------|-----------------|----------------|----------------11-|
E|-9-----------9-11-|-4-----------4---|----------------|-11----------11----|
B|-----------9------|-----------4-----|----------------|-------------------|

G|------------------|-----------------|-7--------------|------------------|
D|------------------|-----------------|--------8-------|------------------|
A|------------------|-----------------|----------------|------------------|
E|-9-----------9-11-|-4-----------4---|----------------|-11---------------|
B|-----------9------|-----------4-----|----------------|------------------|


Key:
| /  slide up
| \  slide down
| h  hammer-on
| p  pull-off
Suggest correction
Give kudos to tab author, rate the tab!
1 2 3 4 5
comments
print report bad tab
guest
You may want to rate the tab now too:
select rating
Wanna post a correction for this tab? Suggest correction