Oops, an error
Loading. Please wait.

Spin Bass Tab

version 2
version 2

Whole song

Interactive

243 views 3 this week
no commentswrite comment
1 2 3 4 5
excellent!
x 1
add to favorites
launch autoscroll
font size
0
reset
guitar tuner
Tab Pro tools
  • play this tab
  • loop segment
  • change instrument
  • show fretboard
  • metronome
Autoscroll
slow
fast
+/-
esc
set tempo
stop
Contributor
Difficulty
Tuning
intermediate
B E A D F# B
Lifehouse - Spin
From 'Stanley Climbfall' Album
5 string Bass Tuning, or BEAD on 4 string
tabbed by jjhand

Nice Bass/Guitar Chord progression in this song. Please rate or comment on the tab.

Verse Riff Bass Part (0:11) - includes slide before vocals begin
G|---------------------|-----------------|-----------------|-----------------|
D|-11\-----------------|-----------------|-----------------|-----------------|
A|-----4-4-4-4-4-4-4-4-|-4-4-4-4-4-4-4-4-|-----------------|-----------------|
E|---------------------|-----------------|-6-6-6-6-6-6-6-6-|-6-6-6-6-6-6-6-6-|
B|---------------------|-----------------|-----------------|-----------------|

1st ending
|-----------------|-----------------|
|-----------------|-----------------|
|-6-6-6-6-6-6-6-6-|-6-6-6-6-6-6-6---|
|-----------------|-----------------|
|-----------------|-----------------|



Repeat Verse Riff

2nd ending
|-----------------|-----------------|-----------------|-----------------|
|-----------------|-----------------|-----------------|-----------------|
|-6-6-6-6-6-6-6-6-|-8-8-8-8-8-8-8\--|-----------------|-----------------|
|-----------------|-----------------|-3-3-3-3-3-3-3-3-|-3-3-3-3-3-3-3---|
|-----------------|-----------------|-----------------|-----------------|





Chorus
G|-----------------|-----------------|-----------------|-----------------|
D|-----------------|-----------------|-----------------|-----------------|
A|-4-4-4-4-4-4-4-4-|-4-4-4-4-4-4-4-4-|-----------------|---------------4-|
E|-----------------|-----------------|-6-6-6-6-6-6-6-6-|-6-6-6-6-6-6-6---|
B|-----------------|-----------------|-----------------|-----------------|

|-----------------|-----------------|-----------------|-----------------|
|-----------------|-----------------|-----------------|-----------------|
|-6-6-6-6-6-6-6-6-|-8-8-8-8-8-8-8\--|-----------------|-----------------|
|-----------------|-----------------|-3-3-3-3-3-3-3-3-|-3-3-3-3-3-3-3---|
|-----------------|-----------------|-----------------|-----------------|



repeat chorus except final bar, then play:

|-----------------|
|-----------------|
|---------------4-|
|-3-3-3-3-3-5-6---|
|-----------------|


|-----------------|-----------------|-----------------|-----------------|
|-----------------|-----------------|-----------------|-----------------|
|-6-6-6-6-6-6-6-6-|-8-8-8-8-8-8-8\--|-----------------|-----------------|
|-----------------|-----------------|-3-3-3-3-3-3-3-3-|-3-3-3-3-3-3-3---|
|-----------------|-----------------|-----------------|-----------------|





Play Verse Riff Again



Play Chorus Again


Bridge - play 4x
|-----------------|------------------|-----------------|-------------------|
|-----------------|------------------|-----------------|-------------------|
|-----------------|------------------|-----------------|-------------------|
|-----------------|------------9-----|-----------------|-----------9---9/11|
|---2-2---2---2-2-|-2---2---/9---9\--|---2-2---2---2-2-|-2---2--/9---9-----|


Rest During Clean Guitar Part (2:41)




(2:55) Play Chorus Again


3:55 - Play Bridge Again 2x

4:22 - Ending
|-----------------|------------------|-----------------|-------------------|
|-----------------|------------------|-----------------|-------------------|
|-4-----------4---|-------2----------|-4-----------4---|---------7---------|
|-----------------|------------------|-----------------|-------------------|
|---2-2-2-------2-|-2-2-----0--0-----|---2-2-2-------2-|-2-2---------------|

|-----------------|------------------|-----------------|-------------------|
|-----------------|------------------|-----------------|-------------------|
|-4-----------4---|-------2----------|-4-----------4---|---------7--7--7---|
|-----------------|------------------|-----------------|-------------------|
|---2-2-2-------2-|-2-2-----0--0-----|---2-2-2-------2-|-2-2---------------|

|-----------------|------------------|-----------------|-------------------|
|-----------------|------------------|-----------------|-------------------|
|-4-----------4---|-------2----------|-4-----------4---|---------7/9--7----|
|-----------------|------------------|-----------------|-------------------|
|---2-2-2-------2-|-2-2-----0--0-----|---2-2-2-------2-|-2-2---------------|


|-----------------|------------------|-----------------|----------|
|-----------------|------------------|-----------------|----------|
|-4-----------4---|-------2----------|-4-----------4---|----------|
|-----------------|------------------|-----------------|----------|
|---2-2-2-------2-|-2-2-----0--0-----|---2-2-2-------2-|-2-2------|

      
comments
We did not receive enough feedback on this tab! Please rate:
print report bad tab
1 2 3 4 5
I want to post or [tab]
guest
You may want to rate the tab now too:
select rating
Please do not post tabs as comments. Select "correction" instead!