Oops, an error
Loading. Please wait.

Whatever It Takes Tab

version 1
version 1

Solo

Whole song

55,159 views 21 this week
5 commentsread comments
1 2 3 4 5
accurate
x 11
add to favorites
launch autoscroll
font size
0
reset
how to read this tab
guitar tuner
Tab Pro tools
  • play this tab
  • loop segment
  • change instrument
  • show fretboard
  • metronome
×
Best way to learn
"Whatever It Takes"
Autoscroll
slow
fast
+/-
esc
set tempo
stop
Contributor
Lifehouse - Whatever it takes               tabbed by: tuluks
-----------------------------

another great song from lifehouse.
many guitars playing but i just tabbed for one.
enjoy!



Intro: (x2)
-----

    F7                           Gsus4
e|--0------0------------0------|--3------0------------0------|
B|--1--1-----1---1--1-------1--|--1--1-----1---1--1-----1----|
G|--0----0-----0------0---0----|--0----0-----0------0-----0--|
D|--3--------------------------|--0--------------------------|
A|--3--------------------------|--x--------------------------|
E|-----------------------------|--3--------------------------|


Verse 1 / 2:
-----------

    F7                           Gsus4
e|--0------0------------0------|--3------0------------0------|
B|--1--1-----1---1--1-------1--|--1--1-----1---1--1-----1----|
G|--0----0-----0------0---0----|--0----0-----0------0-----0--|
D|--3--------------------------|--0--------------------------|
A|--3--------------------------|--x--------------------------|
E|-----------------------------|--3--------------------------| (x3)
1. strangled smile fell from your face
2. if  we're gonna  make  this  work  

    Am               C/B     Dm
e|--0-----------------0------2---|
B|--1-----------------1------1---|
G|--2-----------------0------2---|
D|--2-----------------x------0---|
A|--0-----------------2----------|
E|-------------------------------|
  million reasons for you to go
   
    Am               C/B     F
e|--0-----------------0------1---|
B|--1-----------------1------1---|
G|--2-----------------0------2---|
D|--2-----------------x------3---|
A|--0-----------------2------3---|
E|---------------------------1---|
  you can find a reason to stay


Chorus:
------

              C                   G
e|-------------3-------------------7--------|
B|-------------5-------------------8--------|
G|-------------5-------------------7--------|
D|-------------5-------------------9--------|
A|-------------3------------------10--------|
E|------------------------------------------|\
 whatever it takes... turn this around        \
                                                (x2)
              Am7                 F           /
e|-------------3-------------------5--------|/
B|-------------1-------------------6--------|
G|-------------2-------------------5--------|
D|-------------2-------------------7--------|
A|-------------0-------------------8--------|
E|------------------------------------------|
  whats at stake.. ..I've let you down

              Am7                 F7
e|-------------3-------------------0------0------------0------|
B|-------------1-------------------1--1-----1---1--1-----1----|
G|-------------2-------------------0----0-----0------0-----0--|
D|-------------2-------------------3--------------------------|
A|-------------0-------------------3--------------------------|
E|------------------------------------------------------------|
 keep us together... whatever it takes


Verse 3:
-------

      F          Fadd9
e|-----1-----------3-----------------|
B|-----1-----------1-----------------|
G|-----2-----------2-----------------|
D|-----3-----------x-----------------|
A|-----3-----------3-----------------|
E|-----------------------------------|\
  but remember the time I told you     \
                                         (x3)
      G           F                    /
e|-----3-----------1-----------------|/
B|-----3-----------1-----------------|
G|-----4-----------2-----------------|
D|-----5-----------3-----------------|
A|-----5-----------3-----------------|
E|-----3-----------------------------|
  the way that i felt

      Dm            F
e|-----5-------------5------------|
B|-----6-------------6------------|
G|-----7-------------5------------|
D|-----7-------------7------------|
A|-----5-------------8------------|
E|--------------------------------|
 start over,  start over


Chorus: (the slow part)
------

e|--------------------------------------------------------|
B|--------------------------------------------------------|
G|----------5----------------3----------------2-----------|
D|----------5----------------5----------------3-----------|
A|----------3----------------5----------------3-----------|
E|--------------------------------------------------------|
 ..ever it takes....this around....whats at stake



thats it.
just play parts at the right time.
hope you enjoy!

kid©2007™
comments
print report bad tab
5 comments total. Showing first comments.
0 reply
lifehouse_rock9 wrote on June 30 2007, 09:34 pm

Good Stuff.!

0 reply
sem_grey wrote on August 4 2007, 04:49 am

yeh yeh on on....

0 reply
Loyfdnyrd wrote on March 22 2008, 06:01 pm

The DM is really a D7, otherwise great job

I want to post or [tab]
guest
You may want to rate the tab now too:
select rating
Please do not post tabs as comments. Select "correction" instead!