Oops, an error
Loading. Please wait.
We have an official You And Me tab made by UG professional guitarists. Check out the tab »
×
4,501 views 3 this week
1 commentread comment
1 2 3 4 5
1 last vote to show rating
add to favorites
×
Save as Personal and add changes to this tab that will be seen only by you. Learn more ›
×
You can save this tab as Personal to edit and correct it or add notes. All changes will be seen only by you. Learn more »
launch autoscroll
font size
0
reset
guitar tuner
edit
Autoscroll
slow
fast
+/-
esc
set tempo
stop
The bass part doesn't actually come into the song until the second verse, so that's 
I started.  You can play it with the first verse as well.

Verse 2:

E-------------------------|
A-------------------------|
D---5------4--5--2--0—2—--|
G------5------------------|


E---------------------------------------|
A-------------------10---10----10----17-|
D---5-----4—5—2—0—2—--14----14----14----|
G------5--------------------------------|

Chorus:

E-------------------------------------------------------------|
A----------------7---5---7---5----------------7---5---7---3---|
D---5---7---10-------------------5---7---10-------------------|
G-------------------------------------------------------------|

Bridge:

E----------------------------------------------------------------------------|
A----------------------------------------------------------------------------|
D---4---0-—4--5--12—10—9—7—2---4---5--9---5---9---7---0---9---10---12---13---|
G----------------------------------------------------------------------------|


this is extremely acurate. just listen to the cd and play along.  i play acoustic as 
and it sounds awesome with these bass tabs. i'm still working on alternate fingerings
for bridge but this still works. have fun! if you have any questions feel free to email
rachael at wilson4him@juno.com

            
            
Suggest correction
Creating personal tab
Creating personal tab
You can edit any tab online and save it as your Personal.

You can edit, replace or remove any tab part or add personal notes – all changes will be seen only by you.

Personal tabs can be accessed anytime from any device, even offline.
Learn more »
Give kudos to tab author, rate the tab!
1 2 3 4 5
comments
print report bad tab
1 comment total.
0 reply
joyfuljake2 10 Feb 03, 2014 11:05 PM

One small change I wouldn't mind you making is inverting your string order in your tabs. You have it backwards than the standard notation and it throws some off.

guest
Wanna post a correction for this tab? Suggest correction