Oops, an error
Loading. Please wait.

Eri Bellissima chords

version 1
version 1

Whole song

Interactive

by Ligabue
63,139 views 66 this week
no commentswrite comment
1 2 3 4 5
x 24
add to favorites
×
Save as Personal and add changes to this tab that will be seen only by you. Learn more ›
×
You can save this tab as Personal to edit and correct it or add notes. All changes will be seen only by you. Learn more »
launch autoscroll
font size
0
reset
transpose
0
reset
simplify chords
display chords
guitar tuner
edit
Autoscroll
slow
fast
+/-
esc
set tempo
stop
Author
Unregistered
Strumming
There is no strumming pattern for this song yet. and get +5 IQ
[Chords]
Am 002210
Em 022000
G  320033
D  032010
B7 021202

[Intro]
e|---------------------------------------------------------------------|
B|----13-12------------------------------------------------15----------|
G|----------14-12--------12--------12----------12-------14----14-------| (x2)
D|-----------------12-14-----12-14----------12-----12-0----------------|
A|-0-0----------------------------------10/12--------------------------|
E|---------------------------------------------------------------------|

[Verse 1]
Am    Em       G          D
Eri bellissima lasciatelo dire
  Am       Em           G           D
E anche stavolta so che non mi crederai
Am    Em                      G            D
Eri davanti a me davanti agli occhi del bambino
      Am           Em          G            D
E gli occhi del bambino quelli non li danno proprio indietro
Am  Em
Mai
         G    D
Credimi: mai
Am  Em
Mai
         G    D
Ti dico: mai
Am    Em       G            D
Eri sanissima: ostrica e lampone
Am        Em         G             D
Sulle mie dita c'eri sempre e solo te
Am         Em              G          D
Ti davi un attimo e poi ti nascondevi bene
Am        Em           G            D             B7
Io l'ho capito che sei sempre stata grande più di me
Ma adesso dimmi

[Chorus]
C
Com'è andata
G
Com'è stato
   B7                         Em
Il viaggio di una vita lì con te?

Io spero solo
C
Tutto bene
G
Tutto come
   B7                    Em
Progettavate voi da piccole
                 C
Stai bene lì con te?
Stai bene lì con te?
                 Am  Em G D
Stai bene lì con    te

[Instrumental]
e|---------------------------------------------------------------------|
B|----13-12------------------------------------------------15----------|
G|----------14-12--------12--------12----------12-------14----14-------| (x2)
D|-----------------12-14-----12-14----------12-----12-0----------------|
A|-0-0----------------------------------10/12--------------------------|
E|---------------------------------------------------------------------|

[Verse 2]
Am        Em      G            D
Fragile e piccola con le tue paure
Am        Em        G           D
Mi costringevi a nasconderti le mie
Am     Em       G             D
Sapevi ridere sapevi il tuo sapore
Am      Em          G          D           B7
Te la godevi ad occupare tutte le mie fantasie
Ma adesso dimmi

[Chorus]
C
Com'è andata
G
Com'è stato
   B7                         Em
Il viaggio di una vita lì con te?
Io spero solo
C
Tutto bene
G
Tutto come
   B7                    Em
Progettavate voi da piccole
                 C
Stai bene lì con te?
Stai bene lì con te?
Stai bene lì...

[Verse 3]
Am    Em       G          D
Eri bellissima lasciatelo dire
Am     Em           G        D
Eri di tutti ma non lo sapevano
  Am      Em              G           D
E tu lo sapevi che facevi gola e soggezione
Am            Em      G                   D          B7
Siamo stati insieme e comunque non mi hai conosciuto mai
Ma adesso dimmi

[Chorus]
C
Com'è andata
G
Com'è stato
   B7                         Em
Il viaggio di una vita lì con te?
Io spero solo
C
Tutto bene
G
Tutto come
   B7                    Em
Progettavate voi da piccole
                 C
Stai bene lì con te?
Stai bene lì con te?
                 Am  Em G D
Stai bene lì con    te

[Outro] (x3)
e|---------------------------------------------------------------------|
B|----13-12------------------------------------------------15----------|
G|----------14-12--------12--------12----------12-------14----14-------|
D|-----------------12-14-----12-14----------12-----12-0----------------|
A|-0-0----------------------------------10/12--------------------------|
E|---------------------------------------------------------------------|

            
            
Suggest correction
Creating personal tab
Creating personal tab
You can edit any tab online and save it as your Personal.

You can edit, replace or remove any tab part or add personal notes – all changes will be seen only by you.

Personal tabs can be accessed anytime from any device, even offline.
Learn more »
comments
print report bad tab
guest
Wanna post a correction for this tab? Suggest correction