Oops, an error
Loading. Please wait.

Gli Ostacoli Del Cuore Chords

181 views 12 this week
no commentswrite comment
1 2 3 4 5
2 more votes to show rating
add to favorites
launch autoscroll
font size
0
reset
transpose
0
reset
simplify chords
display chords
guitar tuner
Autoscroll
slow
fast
+/-
esc
set tempo
stop
Help us to improve Ultimate-Guitar.com Take our survey!
×
Author
(feat. Elisa)

[Intro]
e-0-0-4-4-0-0-4-4-|
B-5-5-5-5-5-5-5-5-|
G-----------------|
D-----------------|
A-----------------|
E-----------------|

[Intro] (arranged for guitar)|
e-7---------7----------7|-7---------7----------7|-7---------7----------7|
B-----7-9-7------7-9-7-7|-----7-9-7------7-9-7-7|-----7-9-7------7-9-7-7|
G---9----------9--------|---9----------9--------|---9----------9--------|
D-----------------------|-----------------------|-----------------------|
A-0---------0-----------|-----------------------|-9---------9-----------|
E-----------------------|-0---------0-----------|-----------------------|


e-7---------7----------7|-7---------7----------7|
B-----7-9-7------7-9-7-7|-----7-9-7------7-9-7-7|
G---9----------9--------|---9----------9--------|
D-----------------------|-----------------------|
A-0---------0-----------|-----------------------|
E-----------------------|-0---------0-----------|

[Verse]
 Aadd9
C'è Un principio di magia
             Bsus4      E5
Fra gli ostacoli del cuore
Che si attacca volentieri
               Bsus4     Aadd9
Fra una sera che non muore
E una notte da scartare
                   E5
Come un pacco di natale
        Bsus4
Eh eh eh eh


[Verse]
 Aadd9
C'è Un principio d'ironia
            Bsus4   E5
Nel tenere coccolati
I pensieri più Segreti
            Bsus4  Aadd9
E trovarli già Svelati
E a parlare ero io
                      E5
Sono io che li ho prestati


[Chorus]
                      Aadd9
Quante cose che non sai di me
                      E5
Quante cose che non puoi sapere
                  F#m      Aadd9        E5
Quante cose da portare nel viaggio insieme


[Verse]
  Aadd9
C'è Un principio di allegria
             Bsus4     E5
Fra gli ostacoli del cuore
Che mi voglio meritare
              Bsus4     Aadd9
Anche mentre guardo il mare
Mentre lascio naufragare
                 E5
Un ridicolo pensiero


[Chorus]
                     Aadd9
Quante cose che non sai di me
                      E5
Quante cose che non puoi sapere
                  F#m      Aadd9       E5
Quante cose da portare nel viaggio insieme
                    Aadd9
Quante cose che non sai di me
                  E5
Quante cose devi meritare
                   F#m      Aadd9     E5
Quante cose da buttare nel viaggio insieme


[Verse]
  Bsus4                  F#m
C'è Un principio di energia
                    F#m7
Che mi spinge a dondolare
                           Aadd9
Fra il mio dire ed il mio fare
E sentire fa rumore
              F#m
Fa rumore camminare
                      E5
Fra gli ostacoli del cuore


[Chorus]
                     Aadd9
Quante cose che non sai di me
                      E5
Quante cose che non puoi sapere
                  F#m        Aadd9    E5
Quante cose da portare nel viaggio insieme
                     Aadd9
Quante cose che non sai di me
                     E5
Quante cose che non vuoi sapere
                   F#m        Aadd9     E5
Quante cose da buttare nel viaggio insieme

(Grazie a Vanylla, Graziano, Ery88, Erica per questo testo)
Suggest correction
Give kudos to tab author, rate the tab!
1 2 3 4 5
comments
print report bad tab
guest
You may want to rate the tab now too:
select rating
Wanna post a correction for this tab? Suggest correction