Oops, an error
Loading. Please wait.

Tra Palco E Realta bass

by Ligabue
227 views 3 this week
no commentswrite comment
1 2 3 4 5
3 more votes to show rating
add to favorites
×
Save as Personal and add changes to this tab that will be seen only by you. Learn more ›
×
You can save this tab as Personal to edit and correct it or add notes. All changes will be seen only by you. Learn more »
launch autoscroll
font size
0
reset
guitar tuner
edit
Autoscroll
slow
fast
+/-
esc
set tempo
stop
Author
Difficulty
-------------------------------------------------------------------------------
                             TRA PALCO E REALTA' - LIGABUE
-------------------------------------------------------------------------------
Artista: Ligabue
Canzone: Tra palco e realtà
Accordatura  E(mi) A(la) D(re) G(sol)
Tab: Danko Cardi
Per qualsiasi considerazione mi trovate su Fb (Danko Cardi)

INTRO

|---------------------------------------|----------------------------|--------------|
|---------------------------------------|.---------------------------|-------0000--.|
|--00000000-22222222-33333333-33333333--|.---------00000000-2222222--|--3-3--------.|
|---------------------------------------|--3333333-------------------|---3-3--------|

VERSI

|---------------------------|---------------------54--74--|
|---------------------0000--|------------------------5----|
|-------0-00--2-22-3--------|-------0-00--2-22-3----------|
|--3-33---------------------|--3-33-----------------------|
                                                         *
|---------------------------|---------------------|--------------------|
|---------------------0000--|---------------------|.------------------.|
|-------0-00--2-22-3--------|-------0-00--2-22-3--|.--3-3--2-2--0-0---.|
|--3-33---------------------|--3-33---------------|-----------------3--|


|------7/9-7-5-4--|--------------------------------|
|----7------------|--77777777--10101010--12121212--|
|--5--------------|--------------------------------|
|-----------------|--------------------------------|


RITORNELLO
                                                                                     *
|----------------------------|--------------|------------------------------|--------|
|----------------------------|-------0000---|------------------------------|--------|
|----------00000000-2222222--|--3-3---------|-----------00000000-22222222--|--3-3---|
|--3333333-------------------|---3-3--------|--33333333--------------------|---3-3--|

|---------|
|---------|
|--3-3-3--|
|---------|


RIPETERE VERSI

RIPETERE RITORNELLO FINO AL * POI
                                X3
|-----------------|--------------------|--5-5----------|
|-----------------|--------------------|---------------|
|--2-5-2----------|-----------3-3------|---------------|
|--------5-3-2-0--|--0-0--2-2-----3-2--|------3-2--/5--|
ASSOLO DI CHITARRA 
|----------------------------------------|------7/9-7-5-4--|------------------------------|
|.--------------------------------------.|----7------------|------------------------------|
|.--33333333-22222222-00000000----------.|--5--------------|--00000000-22222222-33333333--|
|------------------------------33333333--|-----------------|------------------------------|

|---------|
|---------|
|--3-3-3--|
|---------|


RIPETERE VERSI FINO AL * POI

|------7/9-7-5-4--|-----------------|---------|
|----7------------|-----------------|---------|
|--5--------------|--00000000-2222--|--3-3-3--|
|-----------------|-----------------|---------|

RIPETERE RITORNELLO FINO ALLA FINE


| /  slide up
| \  slide down
| h  hammer-on
| p  pull-off
| ~  vibrato
| +  harmonic
| x  Mute note
===============================================================================
Suggest correction
Creating personal tab
Creating personal tab
You can edit any tab online and save it as your Personal.

You can edit, replace or remove any tab part or add personal notes – all changes will be seen only by you.

Personal tabs can be accessed anytime from any device, even offline.
Learn more »
Give kudos to tab author, rate the tab!
1 2 3 4 5
comments
print report bad tab
guest
You may want to rate the tab now too:
select rating
Wanna post a correction for this tab? Suggest correction