Oops, an error
Loading. Please wait.

Sand And Snow Tab

563 views 1 this week
3 commentsread comments
1 2 3 4 5
excellent!
x 3
add to favorites
launch autoscroll
font size
0
reset
how to read this tab
guitar tuner
Autoscroll
slow
fast
+/-
esc
set tempo
stop
Help us to improve Ultimate-Guitar.com Take our survey!
×
Author
Difficulty
Tuning
advanced
C G C F A D
Light this city-sand and snow
cgcfad

Gt. 1 heard on right side
Gt.2 heard on left side

Riff 1 Gt.1 (melody) 0:02-0:18
-------------------------------------------------------|
-------------------------------------------------------|
-------------10-12--10~--------------------------------|
8-----10--12-----------12-13-10--12~-------13-12-10----|
--10-------------------------------13-13-15---------13-|
-------------------------------------------------------|


--------------------------------------------------|
--------------------------------------------------|
-------------10-12--10~---------------------------|
8-----10--12-----------12-13-10--12~-------13-12--|
--10-------------------------------13-13-15-------|
--------------------------------------------------|

harmony melody 0:11-0:18
---------------------------------------------------|
---------------------------------------------------|
---------7-8--7~-----------------------------------|
7----7-8---------8--10-7-8~-------7--10-8-7--------|
--10------------------------10-10-----------10~----|
---------------------------------------------------|


---------------------------------------------------|
---------------------------------------------------|
---------7-8--7~-----------------------------------|
7----7-8---------8--10-7-8~-------7--10-8~---------|
--10------------------------10-10------------------|
---------------------------------------------------|

Riff 1 Gt. 2 (rythm)just showing root note
-------------------------------------------|
-------------------------------------------|
-------------------------------------------|
-------------------------------------------|
-5--------1---------3-------8--------------|
-5--------1---------3-------8--------------|


Riff 2 PART A '*'=palm mute 0:18-0:38
------------------------------------|
------------------------------------|
-------7----------------------------|
-*-***---8-5-----*-***-*--***-***---|
-5-555-------8-5-3-333-3--000-000---|
-5-555-----------3-333-3--000-000---|

PART B
-----------------------[-guitar 1--right]
-----------------------[----------------]
-------7---------------[--------*---*-15]
-*-***---8-5-----------[--*--*--12-15---]
-5-555-------8-5-*-***-[-10-13----------]
-5-555-----------8-888-[----------------]

 what Gt 2 plays in'[]'s (left)
----------------|
-------*--------|
-----*-7-10-----|
-*-*-7----------|
-5-8------------|
----------------|

Riff 2 [cont.]
------------------------------------|
------------------------------------|
-------7----------------------------|
-*-***---8-5-----*-***-*--***-***---|
-5-555-------8-5-3-333-3--000-000---|
-5-555-----------3-333-3--000-000---|

 after above Gt. 1 plays
-------------------------------------|
-------------------------------------|
*-***------------*-***---------------|
5-555-8-5--------7-777--10-7---------|
----------6-8-6--------------8-10-8--|
-------------------------------------|

Gt.2 plays
-----------------------------------|
-----------------------------------|
-*-***-7----------*-***-8----------|
-5-555---8-5-7-5--7-777---10-7-8-7-|
-----------------------------------|
-----------------------------------|

Gt.1 PART A,PART B,then this
------------------------------------|
------------------------------------|
*-***------------*-***--------------|
5-555-8-5--------7-777-10-7------7--|
----------6-8-6-------------8-10----|
------------------------------------|

Gt.2 plays
-----------------------------------|
-----------------------------------|
-*-***-7----------*-***-8--------7-|
-5-555---8-5-7-5--7-777---10-7-8---|
-----------------------------------|
-----------------------------------|


Riff 3 Gt.1[melody] 0:38-0:57
---------------------------------|
-------------------------__------|
12^10-------------------/  \-----|
------12-12~~-8^10-12-12-10-8----|
---------------------------------|
---------------------------------|

-----------------------------------|
-----------------------------------|
12^10-------------*-*--*-*-*-*-*-*-|
------12^13-10^12-8-10-7-8-5-7-3-5-|
-----------------------------------|
-----------------------------------|

Riff 3 Gt. 2 [rythm]
-------------------------------------------|
-------------------------------------------|
-------------------------------------------|
---------------------------------10--10-10-|
5\3-1-1---8----3-----5\3-1-1--8--8---8--8--|
5\3-1-1---8----3-----5\3-1-1--8------------|


-----------------------------------------|
-----------------------------------------|
-----------------------------------------|
---------------------------------7-------|
5\3-1-1---8----3-----5\3-1-1--8--5-------|
5\3-1-1---8----3-----5\3-1-1--8----------|

Riff 2 played again except root notes are 0:57-1:15
3 down picks instead of 1 and a triplet
and 0's are x8


Riff 4 Gt.1  1:15-1:20                                 )
--------------------------------------13-15-15--------18\-|
---------------------11-13-11-13-15-16-----------15-18----|
----------12-10-12-14--------------------------14---------|
----*--*13------------------------------------------------|
-*-10-13--------------------------------------------------|
13--------------------------------------------------------|

Gt. 2                                         )
-----------------------------------------18-20-----17-22\-|
--------*--------------15-16-15-16-18-20---------18-------|
------*-12-15-14-15-17-------------------------19---------|
-*-*--12--------------------------------------------------|
10-13-----------------------------------------------------|
----------------------------------------------------------|

1:20-1:41
Riff 5 both gts except the one part
from riff 2--riffs get switched sides also
------------------------------------------|
------------------------------------------|
------------------------------------------|
----*******----------_-----------*******--|
3/5-5555555-6-5-----/ \----------5555555--|
3/5-5555555-----8--5-8-5-3/5-8^5-5555555--|

------------------------------------------------|
------------------------------------------------|
-------------------------ph---------------------|
-----------_-------------5--------------_-------|
-6-5------/ \----------*---***-6-5-----/ \------|
------8--5-8-5-3/5-8^5-5---555-----8--5-8-5-3/5-|

Gt.2
-------------------------------------|
-------------------------------------|
*-***------------*-***---------------|
5-555-8-5--------7-777--10-7---------|
----------6-8-6--------------8-10-8--|
-------------------------------------|
Gt.1
-----------------------------------|
-----------------------------------|
-*-***-7----------*-***-8--------7-|
-5-555---8-5-7-5--7-777---10-7-8---|
-----------------------------------|
-----------------------------------|
Suggest correction
Give kudos to tab author, rate the tab!
1 2 3 4 5
comments
print report bad tab
3 comments total.
0 reply
Phoenix322 46 wrote on March 29 2011, 03:00 pm

This place needs more LTC tabs. This looks solid at first glance. Thanks for the tab!

+1 reply
Spyke72 57 wrote on May 25 2011, 07:42 pm

Thanks! Here's the outro riff if you wanna add it on:


---------------------------------------------------------|
---------------------------------------------------------|
---------------------------------------------------------|
*---*-5-*-*-***-*-8-*-5-*-7-*---*---*-5-*-*-***-*-8\5/7\3|
5-5-5---5-5-555-5---5---5---5-8-5-5-5---5-5-555-5--------|
5---5---5-5-555-5---5---5---5---5---5---5-5-555-5--------|

-----------------------------------------------------------|
-----------------------------------------------------------|
-----------------------------------------------------------|
*---*-5-*-*-***-*-8-*-5-*-7-*---*---*-5-*-*-***-*----------|
0-5-0---0-0-000-0---0---0---0-8-0-5-0---0-0-000-0-15513883~|
0---0---0-0-000-0---0---0---0---0---0---0-0-000-0-15513883~|

0 reply
Spyke72 57 wrote on May 25 2011, 07:47 pm

The harmony to the outro riff being a minor third higher as you would expect from LTC.
Someone wanna try the solo? :)

guest
You may want to rate the tab now too:
select rating
Please do not post tabs as comments. Select "correction" instead!