Oops, an error
Loading. Please wait.

Baby Please Dont Go tab

version 3
version 3

Whole song

3,433 views 48 this week
no commentswrite comment
1 2 3 4 5
x 5
add to favorites
×
Save as Personal and add changes to this tab that will be seen only by you. Learn more ›
×
You can save this tab as Personal to edit and correct it or add notes. All changes will be seen only by you. Learn more »
launch autoscroll
font size
0
reset
how to read this tab
guitar tuner
edit
Autoscroll
slow
fast
+/-
esc
set tempo
stop
Author
Difficulty
/=slide
p=pull off 
h=hammer on 
()=suggestion or variation

The VERSE lyrics end right at the beginning of the ACOUSTIC BREAK.
He does different fills here and there, but this is the basic template he uses for performing
the song.

VERSE
  baby please don't go            baby please don't go
------0-3---0---0---------------------0-3---0------------------
--0-3-----------3/5---------------0-3-----------3/5/3----------
---------------------------------------------------------------
---------------------------------------------------------------
----------------------------0------------------------------0---
0---0---0---0---0---0-0-3-------0---0---0---0---0---0-0-3------

  baby please don't go down to new orleans you know i love you so        baby please don't -
------0-3---0---0------------------------------------                    -----------
--0-3-----------3/5-3-0-3---0------------------------                    -----------
------------------------------2-------0-2-0----------                    -----------
------------------------------------2-----------2p0h2                    -----------
-----------------------------------------------------                    ---------0-
0---0---0---0---0---0---0---0---0---0---0---0---0----                    -0-0-3-----

ACOUSTIC BREAK
go
------------------------------------------------
------------------------------------------------
---(1)-------------(1)-------------(1)----------
---(2)-------------(2)-------------(2)----------
----x-------0-------x-------0-------x-----------
0---x---3-------0---x---3-------0---x---3---4---


----3---2-3-----3---2-3-----2p0-------0-0-0-------0-0-0--------------
----2-----------------------------0-3/5-5-5---0-3/5-5-5-----3p0------
---------------------------------------------------------------------
---------------------------------------------------------------------
0---0---0---0---0---0---0---0----------------------------------------
--------------------------------0---0---0---0---0---0---0---0---(0)--

----2-2-----------3---0p2p0-0-----------------0-----2-2-2---2-2---
---------------------------2------2/3---------0-----0-0-0---0-0---
--2-------------------------------3/4---2p0h1---------------------
1----------------------------------------------------------------- Repeat from the very beginning
2---2---2---2---0---0-----0---0-------------------2---2---2---2---
----------------------------------0---0---0---0-------------------


standard tuning
----------

            
            
Suggest correction
Creating personal tab
Creating personal tab
You can edit any tab online and save it as your Personal.

You can edit, replace or remove any tab part or add personal notes – all changes will be seen only by you.

Personal tabs can be accessed anytime from any device, even offline.
Learn more »
comments
print report bad tab
guest
You may want to rate the tab now too:
select rating
Wanna post a correction for this tab? Suggest correction