Oops, an error
Loading. Please wait.

Flux And Flow Acoustic tab

by Lights
514 views 6 this week
no commentswrite comment
1 2 3 4 5
3 more votes to show rating
add to favorites
×
Save as Personal and add changes to this tab that will be seen only by you. Learn more ›
×
You can save this tab as Personal to edit and correct it or add notes. All changes will be seen only by you. Learn more »
launch autoscroll
font size
0
reset
how to read this tab
guitar tuner
edit
Autoscroll
slow
fast
+/-
esc
set tempo
stop
https://www.youtube.com/watch?v=giJACyjW8Bs


[Intro]

e|-------0-------0-------0-------0-------------------------------------------|
B|---1-------1-------0-------0-----------------------------------------------|
G|-----2-------2-------5-------5---------------------------------------------|   x2
D|-3-------3-------7-------5-------------------------------------------------|
A|---------------------------------------------------------------------------|
E|---------------------------------------------------------------------------|


[Verse]

e|---------------------------------------------------------------------------|
B|-------1--------0----------------------------------------------------------|
G|---0--------5-------4---4--------------------------------------------------|   x8
D|-3---3----7---7---5---5----------------------------------------------------|
A|---------------------------------------------------------------------------|
E|---------------------------------------------------------------------------|
Well,  I guess I lost this round
The mountains have come down
I won't go where they go
No, I'll be back around

With our heads above the trees
And the storm at our knees
Come all the tides and tows
We'll stand above the sea


[Pre-chorus]

e|-----------------1---------------------------------------------------------|
B|---1-----------3-------0---------1-------------0---0-----------------------|
G|-2-------2-----------0---------2-------2-----0---0-------------------------|   x1
D|---------------------------------------------------------------------------|
A|---------------------------------------------------------------------------|
E|-------1-----------------------------1-------------------------------------|
PM   *             *               *      

Highs and lows
There are pits and lands
On the ground that you stand


[Chorus]

e|-------0-------0-------0-------0-------------------------------------------|
B|---1-------1-------0-------0-----------------------------------------------|
G|-----2-------2-------5-------5---------------------------------------------|   x2
D|-3-------3-------7-------5-------------------------------------------------|
A|---------------------------------------------------------------------------|
E|---------------------------------------------------------------------------|
So flux and flow, flux and flow


[Verse]

e|---------------------------------------------------------------------------|
B|-------1--------0----------------------------------------------------------|
G|---0--------5-------4---4--------------------------------------------------|   x4
D|-3---3----7---7---5---5----------------------------------------------------|
A|---------------------------------------------------------------------------|
E|---------------------------------------------------------------------------|
When we taste a bitter end
And hunger life again
We take another turn
With a better hand


[Pre-chorus]

e|-----------------1---------------------------------------------------------|
B|---1-----------3-------0---------1-------------0---0-----------------------|
G|-2-------2-----------0---------2-------2-----0---0-------------------------|   x1
D|---------------------------------------------------------------------------|
A|---------------------------------------------------------------------------|
E|-------1-----------------------------1-------------------------------------|
PM   *             *               *  

Highs and lows
There are pits and lands
On the ground that you stand
Flux and flow
And you fix your plans
Then, you trade in your hand


[Chorus]

e|-------0-------0-------0-------0-------------------------------------------|
B|---1-------1-------0-------0-----------------------------------------------|
G|-----2-------2-------5-------5---------------------------------------------|   x4
D|-3-------3-------7-------5-------------------------------------------------|
A|---------------------------------------------------------------------------|
E|---------------------------------------------------------------------------|
So flux and flow, flux and flow


[Bridge]

e|-------0-------0-------0-------0-------------------------------------------|
B|---1-------1-------0-------0-----------------------------------------------|
G|-----2-------2-------5-------5---------------------------------------------|   x4
D|-3-------3-------7-------5-------------------------------------------------|
A|---------------------------------------------------------------------------|
E|---------------------------------------------------------------------------|


[Outro]

e|-------0-------0-------0-------0-------------------------------------------|
B|---1-------1-------0-------0-----------------------------------------------|
G|-----2-------2-------5-------5---------------------------------------------|   x8
D|-3-------3-------7-------5-------------------------------------------------|
A|---------------------------------------------------------------------------|
E|---------------------------------------------------------------------------|
There are pits and lands
On the ground that you stand
Flux
And you fix your plans
Then, you trade in your hand

You trade in your hand
You trade in your hand
You trade in your hand
You trade in your hand



***************************

| PM    Palm mute

***************************

            
            
Suggest correction
Creating personal tab
Creating personal tab
You can edit any tab online and save it as your Personal.

You can edit, replace or remove any tab part or add personal notes – all changes will be seen only by you.

Personal tabs can be accessed anytime from any device, even offline.
Learn more »
Give kudos to tab author, rate the tab!
1 2 3 4 5
comments
print report bad tab
guest
You may want to rate the tab now too:
select rating
Wanna post a correction for this tab? Suggest correction