Oops, an error
Loading. Please wait.

Peace Sign tab

version 1
version 1

Whole song

by Lights
12,504 views 6 this week
1 commentread comment
1 2 3 4 5
x 10
add to favorites
×
Save as Personal and add changes to this tab that will be seen only by you. Learn more ›
×
You can save this tab as Personal to edit and correct it or add notes. All changes will be seen only by you. Learn more »
launch autoscroll
font size
0
reset
how to read this tab
guitar tuner
edit
Autoscroll
slow
fast
+/-
esc
set tempo
stop
Just to get the Siberia Acoustic tabs rolling. Feel free to correct and repost or what have you.



CAPO 5


VERSE

|-----------------------------------------------------------------|
|-----------------------------------------------------------------|
|-------0------0-----0---------------0------0------0--------------| x6
|-----------------------------------------------------------------|
|---2-----2------2-----2---0----2------2------2------2---2--------|
|-0---0-----0------0-----0----3---3------3------3------3----------|



|-----------------|
|---------1-------|
|-----------------|
|----2------------|
|--0---0----------|
|-----------------|


CHORUS

|-------------------------------------------------------------------|
|-----------------------------------------------------1------1------|
|-------0------0-----0----------------0------0----------------------| x2
|-------------------------------------------------2-----2-----------|
|---2-----2------2-----2---0-----2------2-------0---0-----0---------|
|-0---0-----0------0-----0-----3---3------3-------------------------|


VERSE

|-----------------------------------------------------------------|
|-----------------------------------------------------------------|
|-------0------0-----0---------------0------0------0--------------| x6
|-----------------------------------------------------------------|
|---2-----2------2-----2---0----2------2------2------2---2--------|
|-0---0-----0------0-----0----3---3------3------3------3----------|



|-----------------|
|---------1-------|
|-----------------|
|----2------------|
|--0---0----------|
|-----------------|


CHORUS

|-------------------------------------------------------------------|
|-----------------------------------------------------1------1------|
|-------0------0-----0----------------0------0----------------------| x4
|-------------------------------------------------2-----2-----------|
|---2-----2------2-----2---0-----2------2-------0---0-----0---------|
|-0---0-----0------0-----0-----3---3------3-------------------------|


BRIDGE

|-------3----------2---------0----------2------------|
|-------0----------3---------0----------3------------|
|----------------------------------------------------|
|----------------------------------------------------|  x3
|---------------2----------2----------0--------------|
|----3--------2----------0----------2----------------|





Strum
G   D/F# Em    D/F#
G   D/F# Em    D/F#



CHORUS

|-------------------------------------------------------------------|
|-----------------------------------------------------1------1------|
|-------0------0-----0----------------0------0----------------------| x6
|-------------------------------------------------2-----2-----------|
|---2-----2------2-----2---0-----2------2-------0---0-----0---------|
|-0---0-----0------0-----0-----3---3------3-------------------------|

            
            
Suggest correction
Creating personal tab
Creating personal tab
You can edit any tab online and save it as your Personal.

You can edit, replace or remove any tab part or add personal notes – all changes will be seen only by you.

Personal tabs can be accessed anytime from any device, even offline.
Learn more »
comments
print report bad tab
1 comment total.
0 reply
Lights1999 10 Aug 28, 2017 06:11 AM

i absolutely love this song

guest
You may want to rate the tab now too:
select rating
Wanna post a correction for this tab? Suggest correction